Oops, an error
Loading. Please wait.

Yoshis Woolly World Theme Tab

49 views 1 this week
no commentswrite comment
1 2 3 4 5
3 more votes to show rating
add to favorites
launch autoscroll
font size
0
reset
how to read this tab
guitar tuner
Autoscroll
slow
fast
+/-
esc
set tempo
stop
Help us to improve Ultimate-Guitar.com Take our survey!
×
Author
Difficulty
About this tab version
I've been looking for this tab and couldn't find it, so I decided to make one up. It's my first one so I hope you like it. This tab is from the Nintendo Game Yoshi's Woolly World, it's one of the beginning theme songs. Was this info helpful? Yes No
[Intro]

e|----3-2-0----------------------3-2-0--------------------------------------------|
B|----3-----3---3-1---1-0--------3-----3---3-1---1-0------------------------------|
G|--------------------------------------------------------------------------------|
D|--------------------------------------------------------------------------------|
A|--------------------------------------------------------------------------------|
E|--------------------------------------------------------------------------------|

e|----3--7--3--2--5--2--0--3--0----0-2-3--7--3--2--5--2--0--3--0----0-2-----------|
B|-------------------------------3--------------------------------3---------------|
G|--------------------------------------------------------------------------------|
D|--------------------------------------------------------------------------------|
A|--------------------------------------------------------------------------------|
E|--------------------------------------------------------------------------------|(repeat)
                                                                       
Suggest correction
Give kudos to tab author, rate the tab!
1 2 3 4 5
comments
print report bad tab
guest
You may want to rate the tab now too:
select rating
Wanna post a correction for this tab? Suggest correction