Oops, an error
Loading. Please wait.

Jason Newsted - My Friend Of Misery solo bass

31,593 views 27 this week
3 commentsread comments
1 2 3 4 5
x 14
add to favorites
×
Save as Personal and add changes to this tab that will be seen only by you. Learn more ›
×
You can save this tab as Personal to edit and correct it or add notes. All changes will be seen only by you. Learn more »
launch autoscroll
font size
0
reset
guitar tuner
edit
Autoscroll
slow
fast
+/-
esc
set tempo
stop
Band: Metallica
Song: My Friend of Misery
Album: Classic Albums: Metallica - Metallica (2001)
Bassist: Jason Newsted
Tuning: Half-Step Down

Note:
This is the bass solo that Jason plays on the Classic Albums DVD, he also
used to play it a bit different on Metallica's live concerts.

You can see him performing it here:
http://www.youtube.com/watch?v=6qPSSEv2e_A

F#|----10------10------14------12------10-|
C#|-------12------12------12------12------|
G#|-0--------0-------0-------0-------0----|
D#|---------------------------------------|

F#|-----9------9------9-12------10------9-|
C#|-------10-----10--------10------10-----|
G#|-0-0------0------0---------0-------0---|
D#|---------------------------------------|

F#|-----10------10------10-14------12------10-|
C#|--------12------12---------12------12------|
G#|-0-0-------0-------0----------0-------0----|
D#|-------------------------------------------|

F#|-----9------9------9-12------10------9-|
C#|-------10-----10--------10------10-----|
G#|-0-0------0------0---------0-------0---|
D#|---------------------------------------|

F#|-----10------10------10-14------12------10-|
C#|--------12------12---------12------12------|
G#|-0-0-------0-------0----------0-------0----|
D#|-------------------------------------------|

F#|-----9------9------9-12------10------9-|
C#|-------10-----10--------10------10-----|
G#|-0-0------0------0---------0-------0---|
D#|---------------------------------------|

F#|-----10------10------10-14------12------10-|
C#|--------12------12---------12------12------|
G#|-0-0-------0-------0----------0-------0----|
D#|-------------------------------------------|

F#|-----9------9------9-12------10------9---|
C#|-------10-----10--------10------10-------|
G#|-0-0------0------0---------0-------0---0-|
D#|-----------------------------------------|

F#|-----7---4-----5------5-----5---|
C#|---7---7---5------5-----5-----5-| x3
G#|-0-----------0------0-----0-----|
D#|--------------------------------|

F#|-----7---4-----5------7-----9---|
C#|---7---7---5------5-----7-----9-|
G#|-0-----------0------0-----0-----|
D#|--------------------------------|

F#|---10------10------10-14------12------10-|
C#|------12------12---------12------12------|
G#|-0-------0-------0----------0-------0----|
D#|-----------------------------------------|

F#|-----9------9------9-12------10------9-|
C#|-------10-----10--------10------10-----|
G#|-0-0------0------0---------0-------0---|
D#|---------------------------------------|

F#|-----10------10------10-14------12------10-|
C#|--------12------12---------12------12------|
G#|-0-0-------0-------0----------0-------0----|
D#|-------------------------------------------|

F#|-----9------9------9-12------10------9---10-|
C#|-------10-----10--------10------10-------12-|
G#|-0-0------0------0---------0-------0---0-0--|
D#|--------------------------------------------|

            
            
Suggest correction
Creating personal tab
Creating personal tab
You can edit any tab online and save it as your Personal.

You can edit, replace or remove any tab part or add personal notes – all changes will be seen only by you.

Personal tabs can be accessed anytime from any device, even offline.
Learn more »
comments
print report bad tab
3 comments total.
0 reply
VbelacV 10 Aug 13, 2013 04:47 PM

Awesome! thanks!

+1 reply
Rapean 10 May 20, 2015 10:55 AM

Middle section

F#|-----7---4-----5------5-----5---|
C#|---5---5---5------7-----7-----7-| x3
G#|-0-----------0------0-----0-----|
D#|--------------------------------|

F#|-----7---4-----5------7-----9---|
C#|---5---5---5------7-----9-----10|
G#|-0-----------0------0-----0-----|
D#|--------------------------------|

0 reply
Lightwarrior 10 Nov 20, 2015 03:11 PM

Can't the song be played or is played in E standard tuning?

guest
You may want to rate the tab now too:
select rating
Wanna post a correction for this tab? Suggest correction