Oops, an error
Loading. Please wait.

Adonai Li Lo Ira Tab

4 views 4 this week
no commentswrite comment
1 2 3 4 5
3 more votes to show rating
add to favorites
launch autoscroll
font size
0
reset
how to read this tab
guitar tuner
Autoscroll
slow
fast
+/-
esc
set tempo
stop
Help us to improve Ultimate-Guitar.com Take our survey!
×
Author
אדוני לי, לא אירא

Psalm 118:6,5,8,9,
תהילים קי"ח: 6,5,8,9

[Chorus]

G  Eb     Bb    F  Eb  Bb  Fm Cm 
?!?אדוני לי, לא אירא. מה יעשה לי אדם

  Am      G7    F  Eb  Bb  Fm Cm 
?!?אדוני לי, לא אירא. מה יעשה לי אדם

e|---------8-----------------------------------------------------------------|
B|--------8--9------11------8------8--9--11------11--8-----------------------|
G|--8-----------10------10-----10------------10------------------------------|
D|---------------------------------------------------------------------------|
A|---------------------------------------------------------------------------|
E|---------------------------------------------------------------------------|

e|---------8-----------------------------------------------------------------|
B|--------8--9------11------8------8--9--11------11--8-----------------------|
G|--8-----------10------10-----10------------10------------------------------|
D|----------------------------------------------------------5----------------|
A|----------------------------------------------------------5----------------|
E|---------------------------------------------------------------------------|


[Verse]

 G7  Ab    Bb  Cm   G7   Ab   Bb  Cm 
    .מן המצר קראתי יה. ענני במרחב יה

e|---------------------------------------------------------------------------|
B|---------------------------------------------------------------------------|
G|---------------------------------------------------------------------------|
D|---------------------------------------------------------------------------|
A|--33333--11111-------------------33333-------------------------------------|
E|----------------44444--33333------------66666--44444--33333----------------|

Cm G7  Fm   Eb Bb  Fm   Cm
.טוב לחסות באדוני מבטח באדם

 Cm   G7  Fm   Eb Bb  Fm   Cm
.טוב לחסות באדוני מבטח בנדיבים

e|---------------------------------------------------------------------------|
B|------8------------6----------------9--------------------------------------|
G|---------8--10--------7--8------10-----------------------------------------|
D|--10------------8-----------10---------9--12--9--10------------------------|
A|---------------------------------------------------------------------------|
E|---------------------------------------------------------------------------|

e|-----------------------------------------------10--8-----------------------|
B|------8------------6----------------9--12----------------------------------|
G|---------8--10--------7--8------10-----------------------------------------|
D|--10------------8-----------10-------------12------------------------------|
A|---------------------------------------------------------------------------|
E|---------------------------------------------------------------------------|

[Chorus]

G  Eb     Bb    F  Eb  Bb  Fm Cm 
?!?אדוני לי, לא אירא. מה יעשה לי אדם

  Am      G7    F  Eb  Bb  Fm Cm 
?!?אדוני לי, לא אירא. מה יעשה לי אדם

e|---------8-----------------------------------------------------------------|
B|--------8--9------11------8------8--9--11------11--8-----------------------|
G|--8-----------10------10-----10------------10------------------------------|
D|---------------------------------------------------------------------------|
A|---------------------------------------------------------------------------|
E|---------------------------------------------------------------------------|

e|---------8-----------------------------------------------------------------|
B|--------8--9------11------8------8--9--11------11--8-----------------------|
G|--8-----------10------10-----10------------10------------------------------|
D|----------------------------------------------------------5----------------|
A|----------------------------------------------------------5----------------|
E|---------------------------------------------------------------------------|
Suggest correction
Give kudos to tab author, rate the tab!
1 2 3 4 5
comments
print report bad tab
guest
You may want to rate the tab now too:
select rating
Wanna post a correction for this tab? Suggest correction