Oops, an error
Loading. Please wait.

And Can It Be ukulele

version 2
version 2

Whole song

553 views 3 this week
no commentswrite comment
1 2 3 4 5
3 more votes to show rating
add to favorites
×
Save as Personal and add changes to this tab that will be seen only by you. Learn more ›
×
You can save this tab as Personal to edit and correct it or add notes. All changes will be seen only by you. Learn more »
launch autoscroll
font size
0
reset
transpose
0
reset
simplify chords
display chords
guitar tuner
edit
Autoscroll
slow
fast
+/-
esc
set tempo
stop
Author
Strumming
There is no strumming pattern for this song yet. and get +5 IQ
Words by Charles Wesley
Arrangement by Thomas Campbell

no capo 

A|-2---2--0-2-----5-3-0-3-3-2-----2-3-3-0-0-2---0-2-0---0---0-------0---0-2-2---0-0-|
E|-3---3--2-3-----3-0-0-2---3-----3-0---2-2-3---2-3-2---0---2-------2---2-3-3---2-2-|
C|-2---2--2-7-4-2-2-0---2---2-----2-0---2-2-2---2-2-2---1---2-------2---2-2-2-----2-|
G|-0---0--2-0-----0-2---2-2-0-----0-0-0-2---0---5---2---0---2-------2---2-0-0-----2-|

A|-2---2---0-----2-3-3---3-2-2---0-2---0---2-------2---0-0-2---0-2-3---0---0--0----0-|
E|-3---3---2-----3-0-3---0-3-----0-3---2---3-------3---2-2-3---2-3-0-0-0-3-2--0----2-|
C|-2---2---2-----2-0-----0-2-----0-2---2---2-------2---2-2-2---2-2-0---1---2-----2-2-|
G|-0---0---2-----4-0-----0-0-----5-0---5---0-------0---2-2-0---2---0---2-2-2-----2-2-|

A|-2-----2-3---3-3-0-0-5-3-2-------2---2---0-----0-3---3---2-----2-7---7---5---3-0-2---3---2-------|
E|-3---3-3-0-3---0-2-----2-3-----3-----3---2-2-2-------2---3-3-3-----0-0-0-3---0-0-3---2---3-------|
C|-2-2---2-0-----0-2-----2-2-----------2---2-2-2-------2---2-2-2-----0-0-0-2---0---2---2---2-------|
G|-0-----0-0-----0-2-----2-0-----------0---2-2-2-------2---0-0-0-----0-0-0-0---2---0---2---0-------|


G          G       Am       G
And can it be that I should gain
   C        G      D        D
An interest in the Savior’s blood?
D           G       G          D
Died He for me, who caused His pain—
C           G      G     G
For me, who Him to death pursued?
G       G         C      D
Amazing love! How can it be,
     G        C             D       G
That Thou, my God, shouldst die for me?
 G      D         D7     G
Amazing love! How can it be,
     C        G             G   D7  G
That Thou, my God, shouldst die for me?
Suggest correction
Creating personal tab
Creating personal tab
You can edit any tab online and save it as your Personal.

You can edit, replace or remove any tab part or add personal notes – all changes will be seen only by you.

Personal tabs can be accessed anytime from any device, even offline.
Learn more »
Give kudos to tab author, rate the tab!
1 2 3 4 5
comments
print report bad tab
guest
You may want to rate the tab now too:
select rating
Wanna post a correction for this tab? Suggest correction