Oops, an error
Loading. Please wait.

Come Thou Fount Of Every Blessing Tab

version 3
version 3

Whole song

  • This is a specific arrangement, not on UG that I have transcribed for a student.

Interactive

742 views 21 this week
no commentswrite comment
1 2 3 4 5
x 3
add to favorites
launch autoscroll
font size
0
reset
how to read this tab
guitar tuner
×
Best way to learn
"Come Thou Fount Of Every Blessing"
Autoscroll
slow
fast
+/-
esc
set tempo
stop
About this tab version
This is a specific arrangement, not on UG that I have transcribed for a student. Was this info helpful? Yes No
Arrangement by Zeno 
Transcribed and Tabbed by Tim Cardiello

https://www.youtube.com/watch?v=ne0mEc9n8p0


3/4 Time

E|-----|---------0-|---------0-|-2--0------|----|
B|-2-0-|-------2---|-0--0--2---|-3--3--2-0-|----|
G|-----|-2--2------|-1--1------|-2--2------|-2--|
D|-----|-2--2------|-2---------|-0---------|-2--|
A|-----|-0---------|-----------|-----------|-0--|
E|-----|-----------|-0---------|-----------|----|

E|-----|---------0-|---------0-|-2--0------|------0-2-4-|
B|-2-0-|-------2---|-0--0--2---|-3--3--2-0-|------------|
G|-----|-2--2------|-1--1------|-2--2------|-2----------|
D|-----|-2--2------|-2---------|-0---------|-2----------|
A|-----|-0---------|-----------|-----------|-0----------|
E|-----|-----------|-0--0------|-----------|------------|

E|-5--4--2-0-|-2-0-----0-2-4-|-5--4--2-0-|--5--|
B|-5--5--3-3-|-2-2--2--------|-5--5--3-3-|--5--|
G|-------2-2-|-2-2--2--------|-------2-2-|-----|
D|-------0---|---------------|-------0---|-----|
A|-0--4------|-0----0--------|-0--4------|--0--|
E|-----------|---------------|-----------|-----|

E|-----|---------0-|---------0-|-2--0------|----|
B|-2-0-|-------2---|-0--0--2---|-3--3--2-0-|----|
G|-----|-2--2------|-1--1------|-2--2------|-2--|
D|-----|-2--2------|-2---------|-0---------|-2--|
A|-----|-0---------|-----------|-----------|-0--|
E|-----|-----------|-0---------|-----------|----|

E|-----|---------0-|---------0-|-2--0------|------0-2-4-|
B|-2-0-|-------2---|-0--0--2---|-3--3--2-0-|------------|
G|-----|-2--2------|-1--1------|-2--2------|-2----------|
D|-----|-2--2------|-2---------|-0---------|-2----------|
A|-----|-0---------|-----------|-----------|-0----------|
E|-----|-----------|-0--0------|-----------|------------|

E|-5--4--2-0-|-2-0-----0-2-4-|-5--4--2-0-|--5--|
B|-5--5--3-3-|-2-2--2--------|-5--5--3-3-|--5--|
G|-------2-2-|-2-2--2--------|-------2-2-|-----|
D|-------0---|---------------|-------0---|-----|
A|-0--4------|-0----0--------|-0--4------|--0--|
E|-----------|---------------|-----------|-----|

E|-----|---------0-|---------0-|-2--0------|----|
B|-2-0-|-------2---|-0--0--2---|-3--3--2-0-|----|
G|-----|-2--2------|-1--1------|-2--2------|-2--|
D|-----|-2--2------|-2---------|-0---------|-2--|
A|-----|-0---------|-----------|-----------|-0--|
E|-----|-----------|-0---------|-----------|----|

E|-----|---------0-|---------0-|-2--0------|----|
B|-2-0-|-------2---|-0--0--2---|-3--3--2-0-|----|
G|-----|-2--2------|-1--1------|-2--2------|-2--|
D|-----|-2--2------|-2---------|-0---------|-2--|
A|-----|-0---------|-----------|-----------|-0--|
E|-----|-----------|-0---------|-----------|----|
Suggest correction
Give kudos to tab author, rate the tab!
1 2 3 4 5
comments
print report bad tab
guest
You may want to rate the tab now too:
select rating
Wanna post a correction for this tab? Suggest correction