Oops, an error
Loading. Please wait.

Glory Songs album tab

2,200 views 1 this week
no commentswrite comment
1 2 3 4 5
3 more votes to show rating
add to favorites
×
Save as Personal and add changes to this tab that will be seen only by you. Learn more ›
×
You can save this tab as Personal to edit and correct it or add notes. All changes will be seen only by you. Learn more »
launch autoscroll
font size
0
reset
how to read this tab
guitar tuner
edit
Autoscroll
slow
fast
+/-
esc
set tempo
stop
Author
Difficulty
Singles for christ songs (Intro and instrumental)

Here your servant instrumental

by DK is the man 



  C         F        Dm          Gm7       C
    
E------0--------1--3\5---5-------5-5h6--5--------------------I 
B---------3---1----------------8------------6-\-8------------I 
G------------------------------------------------------------I 
D------------------------------------------------------------I 
A------3--3---3----------------------------------------------I 
E------------------------------------------------------------I 


Chorus

           F          Bb         Am

E-----5--6--6\8-------8---6-5--5\8--------I
B------------------6----------------------I
G-----------------------------------------I
D-----------------------------------------I
A-----------------------------------------I    
E-----------------------------------------I

           F          Bb         Gm-Bb     C-C7

E----5--6--6\8--------8---6-5----6--5--------------I
B------------------6-----------8---------6-6\8-----I
G--------------------------------------------------I
D--------------------------------------------------I    
A--------------------------------------------------I
E--------------------------------------------------I

---------------------------------------------------------------------------
			     New Generation Intro 
----------------------------------------------------------------------------
Tabbed by: DK is the man 
Email: dk_lim0507@yahoo.com

Intro:
     G                     C                           G           repeat
e|-----------------7-----------8--8---7---------------------------------|
B|---------8-8--10----10--8-8------------10--10---8---10--10------------|
G|----------------------------------------------------------------------|
D|----------------------------------------------------------------------|
A|----------------------------------------------------------------------|
E|----------------------------------------------------------------------|

----------------------------------------------------------------------------
			    Refiners Fire
----------------------------------------------------------------------------
Tabbed by: DK is the man 
Email: dk_lim0507@yahoo.com

For all SFC beginners please use this and improve your skill 


     c      G          Am            F          Gsus      G     repeat

e|----0-----3------0------------0----1------------------------------------|
B|------------3--------1----1-3------1-----1----1--0---1---3--------------|
G|-------0---------------------------2---2--------------------------------|
D|-----------------------------------3------------------------------------|
A|----3------------0---0--------------------------------------------------|
E|------------------------------------------------------------------------|

----------------------------------------------------------------------------
			     Spirit of the living God
----------------------------------------------------------------------------
Tabbed by:  dk is the man 
Email:  dk_lim0507@yahoo.com

Tuning:

    E                 F#m
e|----------0-0----------2--------2h4---2----------------------------------|
B|-------0---------0-----------2-------------2-----------------------------|
G|--------------------------2--------------2-------------------------------|
D|-------------------------------------------------------------------------|
A|-------2--2-2----2-------------------------------------------------------|
E|----0------------------2-------------------------------------------------|

    E                      F#m
e|----------4-4--------4--4\5----4-------2---------------------------------|
B|-------0---------0-------------------------------------------------------|
G|---------------0---------------------------------------------------------|
D|------------------------4------------------------------------------------|
A|-------2--2-2------------------------------------------------------------|
E|----0--------------------------------------------------------------------|

---------------------------------------------------------------------------
			    Create in me 
---------------------------------------------------------------------------
Tabbed by: DK is the man
Email: dk_lim0507@yahoo.com

Intro
    E         B         A      B           E        B     A           B-B7 
 								    (Slowly)

e|--4-4--4---2---4--2--0-----0-2----0--2--4-4\5--4--2--4-2-0------0---2----|
B|--------------------------2-----------------------------------2---------3|
G|------------------------2-----------------------------------2----------4-|
D|----------------------------------------------------------------------4--|
A|--2-2--2---2---------0------------------2-2----2---------0----------2----|
E|-------------------------------------------------------------------------|

----------------------------------------------------------------------------
			     Whom shall i fear
----------------------------------------------------------------------------
Tabbed by: DK is the man
Email: dk_lim0507@yahoo.com


          G                Am                 C              D

e|-------7---7--7--7--.~~--5--5--5--5---5-.~~-8--8--8--8-.~~-10--10--10-.~~|
B|-------8---------8--.~~--5--5--5--5---5-.~~-5--5--5--5-.~~-7---7---7--.~~|
G -------7---------7--.~~--5--5--5--5---5-.~~-5--5--5--5-.~~-7---7---7--.~~
D|-------------------------------------------------------------------------|
A|-------------------------------------------------------------------------|
E|-------------------------------------------------------------------------|


legend:

  .~~ continue strumming till change chord
| /  slide up
| \  slide down
| h  hammer-on
| p  pull-off
| ~  vibrato
| +  harmonic
| x  Mute note
===========================================================================
Singles for christ song

My life intro 

by DK is the man

       G                      Em                      C

E---2-2h3--3--3--3sl5---3---2-2h3--3--3--3sl5---3---2-2h3--3--3--3sl5---3---
B---------------------------------------------------------------------------
G---------------------------------------------------------------------------
D---------------------------------------------------------------------------
A---------------------------------------------------------------------------
E---------------------------------------------------------------------------

      D          D7

E-------5----7--8--7---5---------------------------------------------------
B---------------------------------------------------------------------------
G---------------------------------------------------------------------------
D---------------------------------------------------------------------------
A---------------------------------------------------------------------------
E---------------------------------------------------------------------------


----------------------------------------------------------------------
			           Isaih 60
----------------------------------------------------------------------
Email: dk_lim0507@yahoo.com

Tuning:      

e|---5----7-8-7---5-----5------5----7-8-7---5-----5------------------------|
B|-------------------7-------------------------7---------------------------|
G|-------------------------------------------------------------------------|
D|-------------------------------------------------------------------------|
A|-------------------------------------------------------------------------|
E|-------------------------------------------------------------------------|





Tip: you can jamming with 2 more guitars to blend this song , 1 for intro and others play chords



| /  slide up
| \  slide down
| h  hammer-on
| p  pull-off
| ~  vibrato
| +  harmonic
| x  Mute note
===========================================================================



            
            
Suggest correction
Creating personal tab
Creating personal tab
You can edit any tab online and save it as your Personal.

You can edit, replace or remove any tab part or add personal notes – all changes will be seen only by you.

Personal tabs can be accessed anytime from any device, even offline.
Learn more »
Give kudos to tab author, rate the tab!
1 2 3 4 5
comments
print report bad tab
guest
You may want to rate the tab now too:
select rating
Wanna post a correction for this tab? Suggest correction