Oops, an error
Loading. Please wait.

O Sacred Head Now Wounded tab

25 views 1 this week
no commentswrite comment
1 2 3 4 5
3 more votes to show rating
add to favorites
×
Save as Personal and add changes to this tab that will be seen only by you. Learn more ›
×
You can save this tab as Personal to edit and correct it or add notes. All changes will be seen only by you. Learn more »
launch autoscroll
font size
0
reset
how to read this tab
guitar tuner
edit
Autoscroll
slow
fast
+/-
esc
set tempo
stop
About this tab version
There wasn't a finger style version of this song, so i wrote one. I suggest listening to the song before learning to play it because its timing is very difficult. I hope it is a blessing, cheers. Was this info helpful? Yes No
Tuning: EABGBe

[Verse 1]
     O   Sa -  cred  Head   now   wound - ed     with greif and shame  weighed down
e|-----------------------------------------------------------------------------------|
B|-----------------------------------------------0----1-----1---0------0-------------|
G|-------2-----0---------------------------------------------------2-----------2-----|
D|---2---------2-----3------2-----0-------2------2----2-----2---2------2--0----------|
A|---3---3--0--------0--2---3-----3--2----3------------------------------------3-----|
E|-----------------------------------------------------------------------------------|

     Now  scorn-ful-ly     sur - round - ed     with thorns thine on  -  ly    crown
e|-----------------------------------------------------------------------------------|
B|----------------------------------------------0----1------1-----0------0-----------|
G|--------2-----0----------------------------------------------------2---------2-----|
D|---2----------2---3------2-----0-------2------2----2------2-----2------2--0--------|
A|---3----3--0------0--2---3-----3--2----3-------------------------------------3-----|
E|-----------------------------------------------------------------------------------|

     How  pale  thou art with an  -  guish with sore  a - buse and  scorn!   
e|-------------------------------------------------------------------------|
B|---1----0--------------0----1------1-------------------------------------|
G|--------------0----2---------------------0----2-----0--------------------|
D|---2----0-----0--------3----2-2-0--2-----2----2-0---2---3----3----2------|
A|----------------3--3----------------------------------------------3------|
E|-------------------------------------------------------------------------|

     How does that vis - age lan - guish  which once was bright as  morn!   
e|-------------------------------------------------------------------------|
B|---1---0----3----1-----0---------0---------------------------------------|
G|-----------------------0---0-----0----------------------------0----------|
D|---2---0----0----2-4----------4---------2-----3----2---0----------2------|
A|----------------------------------------3-----3-2--3---3------2---3------|
E|-------------------------------------------------------------------------|

[Verse 2]
     What Thou, my  Lord,  hast  suf  -  fered  Was  all  for sin -  ners'  gain:
e|--------------------------------------------------------------------------------|
B|----------------------------------------------0----1----1---0------0------------|
G|--------2-----0------------------------------------------------2----------2-----|
D|---2----------2---3------2-----0-------2------2----2----2---2------2--0---------|
A|---3----3--0------0--2---3-----3--2----3----------------------------------3-----|
E|--------------------------------------------------------------------------------|

     Mine, mine  was the    trans-gres -  sion,  But Thine the  dead - ly    pain;
e|--------------------------------------------------------------------------------|
B|-----------------------------------------------0---1-----1----0------0----------|
G|---------2-----0-------------------------------------------------2---------2----|
D|---2-----------2---3------2-----0-------2------2---2-----2----2------2--0-------|
A|---3-----3--0------0--2---3-----3--2----3----------------------------------3----|
E|--------------------------------------------------------------------------------|

     Lo, here  i    fall, my  Sav -  iour! 'Tis i     de- serve Thy place; 
e|------------------------------------------------------------------------|
B|---1---0----------------0---1------1------------------------------------|
G|-------------0----2-----------------------0---2-----0-------------------|
D|---2---0-----0----------3---2-2-0--2------2---2-0---2---3-----3---2-----|
A|---------------3--3-----------------------------------------------3-----|
e|------------------------------------------------------------------------|

     Look on  me  with  Thy fa -  vor,    Vouch-safe  to  me   Thy grave. 
e|------------------------------------------------------------------------|
B|---1----0---3---1-----0---------0---------------------------------------|
G|----------------------0---0-----0----------------------------0----------|
D|---2----0---0---2-4----------4----------2-----3-----2---0--------2------|
A|----------------------------------------3-----3-2---3---3----2---3------|
E|------------------------------------------------------------------------|

[Verse 3] 
     What lan - guage shall  I   bor - row    To  thank Thee, dear - est   Friend,
e|-------------------------------------------------------------------------------|
B|--------------------------------------------0---1-----1-----0------0-----------|
G|--------2-----0------------------------------------------------2---------2-----|
D|---2----------2-----3------2---0-----2------2---2-----2-----2------2--0--------|
A|---3----3--0--------0--2---3---3--2--3-----------------------------------3-----|
E|-------------------------------------------------------------------------------|

     For this  Thy dy  -  ing  sor - row,      Thy pit - y   with - out   end?  
e|-------------------------------------------------------------------------------|
B|---------------------------------------------0---1-----1---0------0------------|
G|-------2-----0------------------------------------------------2---------2------|
D|---2---------2---3------2----0-----2---------2---2-----2---2------2--0---------|
A|---3---3--0------0--2---3----3--2--3------------------------------------3------|
E|-------------------------------------------------------------------------------|
     
     O   make me    Thine for-ev  -  er,  And should a   faint-ing be,
e|-----------------------------------------------------------------------|
B|---1---0----------------0---1------1-----------------------------------|
G|------------0-----2---------------------0---2------0-------------------|
D|---2---0----0-----------3---2-2-0--2----2---2-0----2---3-----3---2-----|
A|--------------3---3----------------------------------------------3-----|
E|-----------------------------------------------------------------------|

     Lord, let me  nev - er, nev - er Out-  live  my  love to  Thee.   
e|-----------------------------------------------------------------------|
B|---1-----0---3---1-----0---------0-------------------------------------|
G|-----------------------0---0-----0-----------------------0-------------|
D|---2-----0---0---2-4----------4-----2-----3-----2---0--------2---------|
A|------------------------------------3-----3-2---3---3----2---3---------|
E|-----------------------------------------------------------------------|

            
            
Suggest correction
Creating personal tab
Creating personal tab
You can edit any tab online and save it as your Personal.

You can edit, replace or remove any tab part or add personal notes – all changes will be seen only by you.

Personal tabs can be accessed anytime from any device, even offline.
Learn more »
Give kudos to tab author, rate the tab!
1 2 3 4 5
comments
print report bad tab
guest
You may want to rate the tab now too:
select rating
Wanna post a correction for this tab? Suggest correction