Oops, an error
Loading. Please wait.

Pursueall I Need Is You Tab

1 view 1 this week
no commentswrite comment
1 2 3 4 5
3 more votes to show rating
add to favorites
launch autoscroll
font size
0
reset
how to read this tab
guitar tuner
Autoscroll
slow
fast
+/-
esc
set tempo
stop
Help us to improve Ultimate-Guitar.com Take our survey!
×
Author
Difficulty
intermediate
About this tab version
This version is the tab for the lead guitar for this song. There may be some flaws and that's my bad as this is my first tab that I've made. hope this helps. Was this info helpful? Yes No
Through the fire, ill persevere, won't submit to any fear
e|------------|-----------|------------|------------|
B|------------|-----------|------------|------------|
G|------------|-----------|------------|------------|
D|---9--7-----|-9--7------|-10--9--5---|--10--9--5--|
A|------------|-----------|------------|------------|
E|---------10-|-------10--|------------|------------|
[Chorus]

e|--------------------------------|
B|---------------------12---------|
G|------------12------------------|
D|--12--12-12----12-12------------|
A|--------------------------------|
E|--------------------------------|

[Chorus]
e|------------------|-------------------|
B|------------------|---------------12--|
G|--------12------11|-------12----------|
D|--12-12---12-12---|-12-12----12-12----|
A|------------------|-------------------|
E|------------------|-------------------|

[Chorus]
e|------------------|-------------------|
B|------------------|---------------12--|
G|--------12------11|-------11----------|
D|--12-12---12-12---|-12-12----12-12----|
A|------------------|-------------------|
E|------------------|-------------------|

x4 (Comes in when guitar starts strumming harder during "lead me to you.."
e|--------------|---------------------|
B|--------------|---------------------|
G|---5--4-------|--4--2---2-----------|
D|--------5--2--|-------5-------------|
A|--------------|---------------------|
E|--------------|---------------------|

[Instrumental]
e|------------------------------------|-----|
B|-13-13-13--12-12--8-8--5-5-5-5-5-5-5|-5---|
G|------------------------------------|-----|
D|------------------------------------|-----|
A|------------------------------------|-----|
E|------------------------------------|-----|

e|-------------------------------------------|------|
B|-12-12-12--10-10--8-8--10-10-10-10-10-10-10|-10-10|
G|-------------------------------------------|------|
D|-------------------------------------------|------|
A|-------------------------------------------|------|
E|-------------------------------------------|------|
(cuts off when girl starts singing "all i need is you"
Suggest correction
Give kudos to tab author, rate the tab!
1 2 3 4 5
comments
print report bad tab
guest
You may want to rate the tab now too:
select rating
Wanna post a correction for this tab? Suggest correction