Oops, an error
Loading. Please wait.

Qariban Qariba Soon Soon Tab

1 view 1 this week
no commentswrite comment
1 2 3 4 5
3 more votes to show rating
add to favorites
launch autoscroll
font size
0
reset
how to read this tab
guitar tuner
Autoscroll
slow
fast
+/-
esc
set tempo
stop
Help us to improve Ultimate-Guitar.com Take our survey!
×
Author
Difficulty
novice
About this tab version
This song is a nasheed, you can play along while he sings, it pretty much just loops. Was this info helpful? Yes No
[Chorus]

   D#m                                                 C#
e|-------------|-------0-----|--------------|-------0---------------------------|
B|-2-2-2-0-2-2-|--2-2-4--4-2-|--2-2-2-0-2-2-|--2-2-4--4-------------------------|
G|-------------|-------------|--------------|-----------------------------------|
D|-------------|-------------|--------------|-----------------------------------|
A|-------------|-------------|--------------|-----------------------------------|
E|-------------|-------------|--------------|-----------------------------------|

                                                    D#m 
e|-------------|------0-2-0--|--------------|--2-2-0----------------------------|
B|-4-4-4-2-4-4-|--4-4------4-|--4-4-4-2-4-4-|--------4-2------------------------|
G|-------------|-------------|--------------|-----------------------------------|
D|-------------|-------------|--------------|-----------------------------------|
A|-------------|-------------|--------------|-----------------------------------|
E|-------------|-------------|--------------|-----------------------------------| ad libitum.

The ending sometimes varies to be 5-5-4-2-2.
The 0 on the e string can also be played as a 5 on the B string, which ever you prefer.
Suggest correction
Give kudos to tab author, rate the tab!
1 2 3 4 5
comments
print report bad tab
guest
You may want to rate the tab now too:
select rating
Wanna post a correction for this tab? Suggest correction