Oops, an error
Loading. Please wait.

Rock Of Ages tab

1,087 views 6 this week
no commentswrite comment
1 2 3 4 5
x 3
add to favorites
×
Save as Personal and add changes to this tab that will be seen only by you. Learn more ›
×
You can save this tab as Personal to edit and correct it or add notes. All changes will be seen only by you. Learn more »
launch autoscroll
font size
0
reset
how to read this tab
guitar tuner
edit
Autoscroll
slow
fast
+/-
esc
set tempo
stop
Author
-------------------------------------------------------------------------------
                             Rock of Ages - Hymn
-------------------------------------------------------------------------------
Tabbed by: the_real_name
E-mail: deltaalfanovemberindiaecholima@gmail.com
Please E-mail me if you have any questions!
Tuning:Standard

e|-----------------------------------------------------------------|
B|---------------------------------------1--3------1---------------|
G|------0------------3--0-------------3---------------3--2--3------|
D|---3-----3----0------------3-------------------------------------|
A|-----------------------------------------------------------------|
E|-----------------------------------------------------------------|
  1.Rock of A - ges, cleft for me.   Let me hide  my-self in Thee;
  2.Not the la - bor of my hands  Can ful - fill Thy law's demands;
  3.Noth-ing in my hand I bring,   Simp-ly to the cross I cling;
  4.While I draw this fleet-ing breath,When mine eyes shall close in death
e|-----------------------------------------------------------------|
B|---------1------1-----------------------1------1-----------------|
G|---2--3------------2-----3--------2--3------------2-----3--------|
D|----------------------3------------------------------3-----------|
A|-----------------------------------------------------------------|
E|-----------------------------------------------------------------|
  1.Let the wa-ter and the blood, From Thy riv-en side which flowed,
  2.Could my zeal no re-spite know, Could my tears for-ever flow,
  3.Na-ked come to Thee for dress; Helpless, look to Thee for grace;
  4.When I soar to worlds un-known, See Thee on Thy judge-ment throne,
e|-----------------------------------------------------------------|
B|-------------------------------------1--3------1-----------------|
G|------0------------3--0-----------3---------------3--2--3--------|
D|---3-----3----0----------3---------------------------------------|
A|-----------------------------------------------------------------|
E|-----------------------------------------------------------------|
  1.Be of sin the dou-ble cure, save me from its guilt and pow'r
  2.All for sin could not a-tone; Thou must save, and Thou al-one.
  3.Foul, I to the fount-ain fly, Wash me, Sav-ior, or I die.
  4.Rock of A-ges, cleft for me, Let me hide my-self in Thee.
Suggest correction
Creating personal tab
Creating personal tab
You can edit any tab online and save it as your Personal.

You can edit, replace or remove any tab part or add personal notes – all changes will be seen only by you.

Personal tabs can be accessed anytime from any device, even offline.
Learn more »
Give kudos to tab author, rate the tab!
1 2 3 4 5
comments
print report bad tab
guest
You may want to rate the tab now too:
select rating
Wanna post a correction for this tab? Suggest correction