Oops, an error
Loading. Please wait.

Song For Mass Tab

27,373 views 27 this week
no commentswrite comment
1 2 3 4 5
please rate
add to favorites
launch autoscroll
font size
0
reset
how to read this tab
guitar tuner
Tab Pro tools
  • play this tab
  • loop segment
  • change instrument
  • show fretboard
  • metronome
×
Best way to learn
"Song For Mass"
Autoscroll
slow
fast
+/-
esc
set tempo
stop
Contributor
Difficulty
advanced
--------------------------------------------------------------------------
			    Songs for Mass (Tagalog)
--------------------------------------------------------------------------
Tabbed by:  Don king Lim
Email:   dk_lim0507@yahoo.com

Tuning: Standard

--------------------------------------------------------------------------
			   Papuri sa Diyos
--------------------------------------------------------------------------
Manuel V Francisco 

SFC songs

Please use the Songbook(old) 195 for lyrics.


Intro :

    G         C   Am   D7     G  (Scaling  Faster)

e|----7-5-----8-5-7-8-7-5-----3---------0-2-3-----------------------------|
B|--3------8----------------------0-1-3-----------------------------------|
G|------------------------------2-----------------------------------------|
D|------------------------------------------------------------------------|
A|------------------------------------------------------------------------|
E|------------------------------------------------------------------------|


Solo:   Slowly

    G          GM7        C  Am       D7

e|-----7-10-7------7-10-7----8-7-5----------------------------------------|
B|--8----------8----------8--------8--------------------------------------|
G|------------------------------------7-----------------------------------|
D|------------------------------------------------------------------------|
A|------------------------------------------------------------------------|
E|------------------------------------------------------------------------|

---------------------------------------------------------------------------
			  Misang Antipona Panginoon Maawa ka
---------------------------------------------------------------------------


Intro:
    Em       Am          B7    Em

e|------------------------------------------------------------------------|
B|--5--7--8--7----5--7---------5------------------------------------------|
G|-----------------------8------------------------------------------------|
D|------------------------------------------------------------------------|
A|------------------------------------------------------------------------|
E|------------------------------------------------------------------------|

   Em    Am     B7 Em   Am    Em   B7   Em  Am          Em B7  Em
    
   Panginoon maawa ka,  Panginoon maawa ka, Panginoon ma-a-wa  ka.

   B7            Em  B7            Em      E7       Am       B7

   Kristo, maawa ka  Kristo, maawa ka  kristo , Kristo maawa ka

   Em    Am    B7  Em   Am    Em     B7 Em   Am          D7  G

   Panginoon maawa ka , Panginoon maawa ka . Panginoon maawa ka 

   Am    Em    B7  Em

   Panginoon maawa ka



--------------------------------------------------------------------------
			        Aleluya 
--------------------------------------------------------------------------
Manuel V. Francisco  SJ

Intro:

    E                G#m7  A                B7     

e|-------------------7-7---------------------------------------------------|
B|--0---9-7-9----0------------10-9-10--9-10--------------------------------|
G|------------------------------------------11-----------------------------|
D|-------------------------------------------------------------------------|
A|-------------------------------------------------------------------------|
E|-------------------------------------------------------------------------|

   E  G#m7   A       B7   C#m    F#m7     B7  
 
   Aleluya ,    Aleluya   Wikain Mo,    Poon Makikinig ako

   G#m7    C#m   F#m7      B        G#m7  C#m    F#m7     B7  Esus E

   sa    iyong   mga   salita   Aleluya ,     Alelu   Alelu - ya 


--------------------------------------------------------------------------
			        Aleluya Purihin ka
--------------------------------------------------------------------------
Intro:

   Dm        C            G    C   F C

e|--1----3-1-0-----1-0-----------------------------------------------------|
B|------------------------3----1-------------------------------------------|
G|-----2--------0----------------------------------------------------------|
D|-------------------------------------------------------------------------|
A|--0--------3------------2------------------------------------------------|
E|------------------------3------------------------------------------------|

  C       G       Am       Em    Dm     C          G  G7

  Purihin ka O aking Panginoon , Sa winika mong banal

  C          G     Am         Em    Dm  C     G  C

  Ang tugon ko sa iyo'y inilaan ,   Alelu  Aleluya

--------------------------------------------------------------------------
			        Si Kristo Ay Gunitain 
--------------------------------------------------------------------------

F. Ramirez  SJ

Intro :  Walts  3\4


    G                 A                   D  A7

e|--7-----------7--10-9-7-----7--9---12--10--------------------------------|
B|----10-8-10-------------10-----------------------------------------------|
G|-------------------------------------------------------------------------|
D|-------------------------------------------------------------------------|
A|-------------------------------------------------------------------------|
E|-------------------------------------------------------------------------|

   D            G      D     G    D     E7  A
 
   Si Kristo ay gunitaing Sarili ay inihain,

   Em7       A       F#m7   Bm      Em7           A-A7   
   
   Bilang pagkain't inu  -  min   Pinag sasaluhan natin 
   
        G      A          F#m7  Bm      Em7     A7        D 

   Hanggang sa Siya'y dumating,    Hanggang sa Siya'y dumating


--------------------------------------------------------------------------
			       Amen
--------------------------------------------------------------------------
M.V. Francisco 
   

Intro :  G C G

   G        Em   C       B      Em      G     D   B7    Em     D      G

e|-----------0---0----0--2------3--5--7-8--7--5---7--5---------10--8--7---|
B|-3--0--3----------1-----------------------------------8-----------------|
G|------------------------------------------------------------------------|
D|------------------------------------------------------------------------|
A|------------------------------------------------------------------------|
E|------------------------------------------------------------------------|

    C         G  D   G  C  G

e|--8--10--8--7---------8--7----------------------------------------------|
B|---------------10--8----------------------------------------------------|
G|------------------------------------------------------------------------|
D|------------------------------------------------------------------------|
A|------------------------------------------------------------------------|
E|------------------------------------------------------------------------|


--------------------------------------------------------------------------
			      Kordero
--------------------------------------------------------------------------
M.V. Francisco

Intro:

   E                  AM7   G#m7        F#m7        B - B7  

e|----2-0----2-0------0---------------------------------------------------|
B|-0------4-------4-4-------2--4-----0--2---------------------------------|
G|------------------------------------------------------------------------|
D|----------------------------------------------2---4-4-------------------|
A|------------------------------------------------------------------------|
E|------------------------------------------------------------------------|

    E            AM7           F#m     B         EM7

e|-----2-0---2-0-----0-------0--4-2-0-------0-2---------------------------|
B|--0------4-----4-4----2-2-----------4-4-4------0------------------------|
G|------------------------------------------------------------------------|
D|------------------------------------------------------------------------|
A|------------------------------------------------------------------------|
E|------------------------------------------------------------------------|


       G#m   C#m7    F#m     G#7     C#m    F#7   B         EM7

e|--0--7-5---4-4--5-5-5------5-4--2--0-0----4-2-0-2-----------------------|
B|-----------------------2------------------------------------------------|
G|------------------------------------------------------------------------|
D|------------------------------------------------------------------------|
A|------------------------------------------------------------------------|
E|------------------------------------------------------------------------|

Do same way but play higher note or fret 




--------------------------------------------------------------------------
			      Ama Namin
--------------------------------------------------------------------------
E.P. Hontiveros

Intro:

            G      C           Am    D7  G   C   G

e|------7---8\10---8--7----------------------8---7-------------------------|
B|----8-------------------10---8--8--7---8---------------------------------|
G|--7----------------------------------------------------------------------|
D|------------------------------------------------------------------------|
A|------------------------------------------------------------------------|
E|------------------------------------------------------------------------|

             C     G              E7             Am

   Ama namin Sumasalangit ka sambahin ang ngalan mo

              E7      Am          D7           G  D7

   Mapasaamin ang kaharian mo sundin ang loob mo
 
           G    C          Am  D7   G   C- G              C

   Dito sa lupa para na sa la------ngit        Bigyan mo kami 

      G              E7            Am              E7      Am

   Ngayon ng aming kakanin sa araw araw  at patawarin mo kami 

       D7      G     D7        G      D7        G

   sa aming mga sala      para ng pag papatawad namin 
             
         E7        Am          Cm                   G

   sa nagkakasala sa amin , at hwag mo kaming ipahintulot 

         Em         Am      C       G      D7    G

   sa tukso , at iadya mo kami sa lahat ng ma-sama




		



| /  slide up
| \  slide down
| h  hammer-on
| p  pull-off
| ~  vibrato
| +  harmonic
| x  Mute note
===============================================================================
comments
We did not receive enough feedback on this tab! Please rate:
print report bad tab
1 2 3 4 5
I want to post or [tab]
guest
You may want to rate the tab now too:
select rating
Please do not post tabs as comments. Select "correction" instead!