Oops, an error
Loading. Please wait.

What A Friend We Have In Jesus tab

version 2
version 2

Whole song

2,816 views 27 this week
1 commentread comment
1 2 3 4 5
x 10
add to favorites
×
Save as Personal and add changes to this tab that will be seen only by you. Learn more ›
×
You can save this tab as Personal to edit and correct it or add notes. All changes will be seen only by you. Learn more »
launch autoscroll
font size
0
reset
how to read this tab
guitar tuner
edit
Autoscroll
slow
fast
+/-
esc
set tempo
stop
Author
Difficulty
-------------------------------------------------------------------------------
                What a Friend We Have in Jesus - Hymn
-------------------------------------------------------------------------------
Tabbed by: the_real_name
E-mail: deltaalfanovemberindiaecholima@gmail.com
Please E-mail me if you have any questions!
Tuning:Standard

e|---------------------------------------------------------------------------|
B|-1----1--3--1----------------------------------------1---------------------|
G|---------------2-------------------------------2--------2--0---------------|
D|------------------3--3--------0-------------3-----3------------------------|
A|---------------------------------------3-----------------------------------|
E|---------------------------------------------------------------------------|
1.What a friend we have in Je - sus, All our sis and grief to bear!
2.Have we tri-als and temp-ta-tions? Is there trou-ble an-y-where?
3.Are we weak and hea-vy lad-en? Cumb-ered with a load of care?

e|---------------------------------------------------------------------------|
B|-1----1--3--1--------------------------------------------------------------|
G|---------------2-------------------------------2--0------------------------|
D|------------------3--3--------0-------------3--------3--2--3---------------|
A|---------------------------------------3-----------------------------------|
E|---------------------------------------------------------------------------|
1.What a priv-i-lege to car  -  ry Ev-'ry-thing to God in pray'r!
2.We should nev-er be dis-cour-aged, Take it to the Lord in pray'r.
3.Prec-ious Savi-our, still our ref-uge, Take it to the Lord in pray'r.

e|---------------------------------------------------------------------------|
B|------------------------------1--------3----3--1---------------------------|
G|-0-------0--2--3--0--2----------------------------2--3--2--0---------------|
D|------4--------------------------------------------------------------------|
A|---------------------------------------------------------------------------|
E|---------------------------------------------------------------------------|
1.O what peace we of-ten for - feit, O what need-less pain we bear
2.Can we find a friend so faith-ful Who will all our sor-rows share?
3.Do thy friends des-pise, for-sake thee? Take it to the Lord in pray'r;

e|---------------------------------------------------------------------------|
B|-1----1--3--1--------------------------------------------------------------|
G|---------------2-------------------------------2--0------------------------|
D|------------------3--3--------0-------------3--------3--2--3---------------|
A|---------------------------------------3-----------------------------------|
E|---------------------------------------------------------------------------|
1.All be-cause we do not car - ry Ev-'ry-thing to God in pray'r!
2.Jes-us knows our ev-'ry weak-ness, Take it to the Lord in pray'r.
3.In His arms He'll take and shield thee Thou will find a sol-ace there.
Suggest correction
Creating personal tab
Creating personal tab
You can edit any tab online and save it as your Personal.

You can edit, replace or remove any tab part or add personal notes – all changes will be seen only by you.

Personal tabs can be accessed anytime from any device, even offline.
Learn more »
comments
print report bad tab
1 comment total.
0 reply
dembrows99 10 Apr 25, 2017 12:14 AM

awesome so happy i found i want to sing this to the lord with all my heart<3 thx deltaalfanov

guest
You may want to rate the tab now too:
select rating
Wanna post a correction for this tab? Suggest correction