Oops, an error
Loading. Please wait.

Mesmonium - Animal Crossing - Kk Cruisin True Remix solo tab

319 views 54 this week
1 commentread comment
1 2 3 4 5
1 last vote to show rating
add to favorites
×
Save as Personal and add changes to this tab that will be seen only by you. Learn more ›
×
You can save this tab as Personal to edit and correct it or add notes. All changes will be seen only by you. Learn more »
launch autoscroll
font size
0
reset
how to read this tab
guitar tuner
edit
Autoscroll
slow
fast
+/-
esc
set tempo
stop
About this tab version
This version is strictly for the solo guitar in the song. There's no chords. Was this info helpful? Yes No
This tab is for the solo guitar that Mesmonium added to the original K.K. Cruisin' song. 
This song is actually a guitar duet but I do not know the chords.
Song link here: https://www.youtube.com/watch?v=xybLsPwa-HU you should refer to the video because I 
kinda suck at making myself clear on some parts.
This song is by K.K. Slider so obviously there's going to be a lot of sliding. 

[Intro]
e|----------------------|---------7-/9|
B|----------------------|--7/8-10-----|
G|----8-6---------------|-------------|
D|6/8----8-6---6-8------|-------------|
A|-----------9----9-6---|-------------|
E|----------------------|-------------|

[Verse]
e|------------------------------|---------------------| 
B|----7------8/10---------------|--------------------7|
G|6/8---7----------6/8-6--------|---------------6--8--|
D|---------8-------------8-6----|----------6--8-------|
A|---------------------------9--|---4-6--9------------|
E|------------------------------|---------------------|

e|------------------------------------------*|-9-6--6-9--9/11|  (Repeat from verse)
B|----7------8/10-------------11-9-7-9-6-----|---------------|
G|6/8---7------------------------------------|---------------|
D|---------8---------------------------------|---------------|
A|-------------------------------------------|---------------|
E|-------------------------------------------|---------------|
*on your second verse you stop here and then move on to the chorus

[Chorus]
e|--------------------------------------------------|----------------------------|
B|----7---9/11--9-9--7/9--7-7--7/9--7-7--9/11--9-9--|--9/11--9-9--7/9--7-7----6-6|
G|6-8-----------------------------------------------|-----------------------8----|
D|--------------------------------------------------|----------------------------|
A|--------------------------------------------------|----------------------------|
E|--------------------------------------------------|----------------------------|

e|-------------------------------------------------------|--------------------------|
B|----------7--9/11--9-9--7/9--7-7--7/9--7-7--9/11--9-9--|--9/11--9-9--7/9--7-7----6|
G|--------8----------------------------------8-----------|-----------------------8--|
D|----6-8------------------------------------------------|--------------------------|
A|6-9----------------------------------------------------|--------------------------|
E|-------------------------------------------------------|--------------------------|

[Solo]
e|----------------6-9-6-9-6------------6-9-6--6h7p6----------------|--------------------------------6-7-7/9|
B|4-7--7-4---7/9------------7----7-9--9-9-----------6-6h7p6--------|------7---------------------7-9--------|
G|-----------------------------8b---------------------------6------|--6/8---7--7p6----------6-8------------|
D|------------------------------------------------------------6/8--|---------------6/8--6-8----------------|
A|-----------------------------------------------------------------|---------------------------------------|
E|-----------------------------------------------------------------|---------------------------------------|

e|-14-11-13-9-11----9------------|
B|---------------11---9--7-9--9-7|
G|-------------------------------|
D|-------------------------------|
A|-------------------------------|
E|-------------------------------|

[Chorus]

e|-----------------------------------------|----------------------------|
B|9/11--9-9--7/9--7-7--7/9--7-7--9/11--9-9-|---9/11--9-9--7/9--7-7-----6|
G|-----------------------------------------|-------------------------8--|
D|-----------------------------------------|----------------------------|
A|-----------------------------------------|----------------------------|
E|-----------------------------------------|----------------------------|

e|--------------------------------------------------------|7/9----------------------------------6-6---|
B|----------7--9/11--9-9--7/9--7-7--7/9--7-7---9/11--9-9--|---9/11--9-9-9-7/9--7-7----6------7-9-9-9-7|
G|--------8----------------------------------8------------|-------------------------8----6-8----------|
D|----6-8-------------------------------------------------|-------------------------------------------|
A|6-9-----------------------------------------------------|-------------------------------------------|
E|--------------------------------------------------------|-------------------------------------------|

  (Key change into outro)

[Outro]
e|-----------------------------------------------------------------------|-----------------------|
B|-10/12-10-10--8/10-8-8--8/10-8-8--10/12-10-10--10/12-10-10--8/10-8-8---|----------------8-8/10-|
G|-----------------------------------------------------------------------|------------7-9--------|
D|-----------------------------------------------------------------------|----------7-9----------|
A|-----------------------------------------------------------------------|---5-7-10--------------|
E|-----------------------------------------------------------------------|-----------------------|

e|-10-7-10-7---14h15p14-10-10-10/12--|-12-10--8-7-7h8p7--------|
B|-----------------------------------|------------------8-10-7-|
G|-----------------------------------|-------------------------|
D|-----------------------------------|-------------------------|
A|-----------------------------------|-------------------------|
E|-----------------------------------|-------------------------|

h=hammer on
p=pull off
/=slide up
b=bend

            
            
Suggest correction
Creating personal tab
Creating personal tab
You can edit any tab online and save it as your Personal.

You can edit, replace or remove any tab part or add personal notes – all changes will be seen only by you.

Personal tabs can be accessed anytime from any device, even offline.
Learn more »
Give kudos to tab author, rate the tab!
1 2 3 4 5
comments
print report bad tab
1 comment total.
0 reply
VeryBakedPotato 22 Jun 10, 2017 04:35 AM

Whoever tabbed this did an awful job.

guest
You may want to rate the tab now too:
select rating
Wanna post a correction for this tab? Suggest correction