Oops, an error
Loading. Please wait.

Remik Complicated tab

10 views 1 this week
no commentswrite comment
1 2 3 4 5
3 more votes to show rating
add to favorites
×
Save as Personal and add changes to this tab that will be seen only by you. Learn more ›
×
You can save this tab as Personal to edit and correct it or add notes. All changes will be seen only by you. Learn more »
launch autoscroll
font size
0
reset
how to read this tab
guitar tuner
edit
Autoscroll
slow
fast
+/-
esc
set tempo
stop
[Intro]
e|----------------------------|
B|----------------------------|
G|-4--4-4-4-4-4-4-4-4-4-4-4-4-|
D|-4--4-4-4-4-4-4-4-4-4-4-4-4-|
A|-2--2-2-2-2-2-2-2-2-2-2-2-2-|
E|----------------------------|
      ************************ 

[Verse]
e|----------------------------------------------------------------------------------------|
B|----------------------------------------------------------------------------------------|
G|-4--4-4-4-4-4-4-4-4-4-4-4-4-------------------------------------------------------------|
D|-4--4-4-4-4-4-4-4-4-4-4-4-4--6--6-6-6-6-6-6-6-6-6-6-6-6--2--2-2-2-2-2-2-2-2-2-2-2-2--4~-|
A|-2--2-2-2-2-2-2-2-2-2-2-2-2--6--6-6-6-6-6-6-6-6-6-6-6-6--2--2-2-2-2-2-2-2-2-2-2-2-2--4~-|
E|-----------------------------4--4-4-4-4-4-4-4-4-4-4-4-4--0--0-0-0-0-0-0-0-0-0-0-0-0--2~-|
      ***********************     ***********************     ***********************       

e|---------------------------------------------------------------------------------------------------------|
B|---------------------------------------------------------------------------------------------------------|
G|-4-4-4-4-4-4-4-4-4-4-4-4-4-------------------------------------------------------------------------------|
D|-4-4-4-4-4-4-4-4-4-4-4-4-4-6-6-6-6-6-6-6-6-6-6-6-6-6-2-2-2-2-2-2-2-2-2-2-2-2-2-4-4-4-4-4-4-4-4-4-4-4-4-4-|
A|-2-2-2-2-2-2-2-2-2-2-2-2-2-6-6-6-6-6-6-6-6-6-6-6-6-6-2-2-2-2-2-2-2-2-2-2-2-2-2-4-4-4-4-4-4-4-4-4-4-4-4-4-|
E|---------------------------4-4-4-4-4-4-4-4-4-4-4-4-4-0-0-0-0-0-0-0-0-0-0-0-0-0-2-2-2-2-2-2-2-2-2-2-2-2-2-|
     ***********************   ***********************   ***********************   ***********************  

[Pre-chorus]
e|----------------------------------------------------|
B|----------------------------------------------------|
G|----------------------------------------------------|
D|-6~-6~----2~-2~----6~-6~----4-4-4-4-4-4-4-4-4-4-4-4-|
A|-6~-6~----2~-2~----6~-6~----4-4-4-4-4-4-4-4-4-4-4-4-|
E|-4~-4~----0~-0~----4~-4~----2-2-2-2-2-2-2-2-2-2-2-2-|
                               ***********************  

[Chorus]
e|----------------------------------|----------------------------------|
B|----------------------------------|----------------------------------|
G|----------------------------------|----------------------------------|
D|-6--6-x-x-2--2-x-x-4--4-x-x--9--8-|-6--6-x-x-2--2-x-x-4--4-x-x--9--8-|
A|-6--6-x-x-2--2-x-x-4--4-x-x--9--8-|-6--6-x-x-2--2-x-x-4--4-x-x--9--8-|
E|-4--4-x-x-0--0-x-x-2--2-x-x--7--6-|-4--4-x-x-0--0-x-x-2--2-x-x--7--6-|

e|---------------------------------------------|----------------------------------------|
B|---------------------------------------------|----------------------------------------|
G|---------------------------------------------|----------------------------------------|
D|-6--6--6-6-6--2--2--2-2-2--4--4--4-4-4--9--8-|-6--6--6-6-6--2--2--2-2-2--4--4--4-4-4~-|
A|-6--6--6-6-6--2--2--2-2-2--4--4--4-4-4--9--8-|-6--6--6-6-6--2--2--2-2-2--4--4--4-4-4~-|
E|-4--4--4-4-4--0--0--0-0-0--2--2--2-2-2--7--6-|-4--4--4-4-4--0--0--0-0-0--2--2--2-2-2~-|

[Instrumental]
e|-----------------------------------------------------------------------------------------------|
B|-----------------------------------------------------------------------------------------------|
G|-4--4-4-4-4-4-4--------------------------------------------------------------------------------|
D|-4--4-4-4-4-4-4-4---2--1--6--6-6-6-6-6-6-4---2--1--2--2-2-2-2-2-2-4---2--1--4--4-4-4-4-4-4--4--|
A|-2--2-2-2-2-2-2-----------6--6-6-6-6-6-6-----------2--2-2-2-2-2-2-----------4--4-4-4-4-4-4--4--|
E|--------------------------4--4-4-4-4-4-4-----------0--0-0-0-0-0-0-----------2--2-2-2-2-2-2--2--|

[Verse]
e|-------------------------------------------------------------------------------------------------|
B|-------------------------------------------------------------------------------------------------|
G|-4--4-4-4-4-4-4-4-4-4-4-4-4----------------------------------------------------------------------|
D|-4--4-4-4-4-4-4-4-4-4-4-4-4--6--6-6-6-6-6-6-6-6-6-6-6-6--2--2-2-2-2-2-2-2-2-2-2-2-2--4~-4~-4-4~--|
A|-2--2-2-2-2-2-2-2-2-2-2-2-2--6--6-6-6-6-6-6-6-6-6-6-6-6--2--2-2-2-2-2-2-2-2-2-2-2-2--4~-4~-4-4~--|
E|-----------------------------4--4-4-4-4-4-4-4-4-4-4-4-4--0--0-0-0-0-0-0-0-0-0-0-0-0--2~-2~-2-2~--|
      ***********************     ***********************     ***********************               

e|---------------------------------------------------------------------------------------------------------|
B|---------------------------------------------------------------------------------------------------------|
G|-4-4-4-4-4-4-4-4-4-4-4-4-4-------------------------------------------------------------------------------|
D|-4-4-4-4-4-4-4-4-4-4-4-4-4-6-6-6-6-6-6-6-6-6-6-6-6-6-2-2-2-2-2-2-2-2-2-2-2-2-2-4-4-4-4-4-4-4-4-4-4-4-4-4-|
A|-2-2-2-2-2-2-2-2-2-2-2-2-2-6-6-6-6-6-6-6-6-6-6-6-6-6-2-2-2-2-2-2-2-2-2-2-2-2-2-4-4-4-4-4-4-4-4-4-4-4-4-4-|
E|---------------------------4-4-4-4-4-4-4-4-4-4-4-4-4-0-0-0-0-0-0-0-0-0-0-0-0-0-2-2-2-2-2-2-2-2-2-2-2-2-2-|

[Pre-chorus]
e|----------------------------------------------------|
B|----------------------------------------------------|
G|----------------------------------------------------|
D|-6~-6~----2~-2~----6~-6~----4-4-4-4-4-4-4-4-4-4-4-4-|
A|-6~-6~----2~-2~----6~-6~----4-4-4-4-4-4-4-4-4-4-4-4-|
E|-4~-4~----0~-0~----4~-4~----2-2-2-2-2-2-2-2-2-2-2-2-|
                               ***********************  

[Chorus]
e|----------------------------------|----------------------------------|
B|----------------------------------|----------------------------------|
G|----------------------------------|----------------------------------|
D|-6--6-x-x-2--2-x-x-4--4-x-x--9--8-|-6--6-x-x-2--2-x-x-4--4-x-x--9--8-|
A|-6--6-x-x-2--2-x-x-4--4-x-x--9--8-|-6--6-x-x-2--2-x-x-4--4-x-x--9--8-|
E|-4--4-x-x-0--0-x-x-2--2-x-x--7--6-|-4--4-x-x-0--0-x-x-2--2-x-x--7--6-|

e|---------------------------------------------|----------------------------------------|
B|---------------------------------------------|----------------------------------------|
G|---------------------------------------------|----------------------------------------|
D|-6--6--6-6-6--2--2--2-2-2--4--4--4-4-4--9--8-|-6--6--6-6-6--2--2--2-2-2--4--4--4-4-4~-|
A|-6--6--6-6-6--2--2--2-2-2--4--4--4-4-4--9--8-|-6--6--6-6-6--2--2--2-2-2--4--4--4-4-4~-|
E|-4--4--4-4-4--0--0--0-0-0--2--2--2-2-2--7--6-|-4--4--4-4-4--0--0--0-0-0--2--2--2-2-2~-|

[Solo]
e|---------------------------------------------------------------------------|
B|-------------------------------------------------------------------5-5/6-5-|
G|-0--0---------------0--0---------------0--0--------------------4-4---------|
D|-5--5---3--2h3-2----5--5---3--2h3-2----5--5---3--2h3-2-3/5-5/6-------------|
A|-----------------3------------------3--------------------------------------|
E|---------------------------------------------------------------------------|

e|---------------------------------------------------------|
B|---------------------------------------------------------|
G|-0--0---------------0--0---------------0--0--------------|
D|-5--5---3--2h3-2----5--5---3--2h3-2----5--5---3--2h3-2---|
A|-----------------3------------------3------------------4-|
E|---------------------------------------------------------|

[Pre-chorus]
e|----------------------------------------------------|
B|----------------------------------------------------|
G|----------------------------------------------------|
D|-6~-6~----2~-2~----6~-6~----4-4-4-4-4-4-4-4-4-4-4-4-|
A|-6~-6~----2~-2~----6~-6~----4-4-4-4-4-4-4-4-4-4-4-4-|
E|-4~-4~----0~-0~----4~-4~----2-2-2-2-2-2-2-2-2-2-2-2-|
                               ***********************  

[Chorus]
e|----------------------------------|----------------------------------|
B|----------------------------------|----------------------------------|
G|----------------------------------|----------------------------------|
D|-6--6-x-x-2--2-x-x-4--4-x-x--9--8-|-6--6-x-x-2--2-x-x-4--4-x-x--9--8-|
A|-6--6-x-x-2--2-x-x-4--4-x-x--9--8-|-6--6-x-x-2--2-x-x-4--4-x-x--9--8-|
E|-4--4-x-x-0--0-x-x-2--2-x-x--7--6-|-4--4-x-x-0--0-x-x-2--2-x-x--7--6-|

e|---------------------------------------------|----------------------------------------|
B|---------------------------------------------|----------------------------------------|
G|---------------------------------------------|----------------------------------------|
D|-6--6--6-6-6--2--2--2-2-2--4--4--4-4-4--9--8-|-6--6--6-6-6--2--2--2-2-2--4--4--4-4-4~-|
A|-6--6--6-6-6--2--2--2-2-2--4--4--4-4-4--9--8-|-6--6--6-6-6--2--2--2-2-2--4--4--4-4-4~-|
E|-4--4--4-4-4--0--0--0-0-0--2--2--2-2-2--7--6-|-4--4--4-4-4--0--0--0-0-0--2--2--2-2-2~-|

[Outro]
e|---------------------------------------------------------------------------------------------------------|
B|---------------------------------------------------------------------------------------------------------|
G|-4-4-4-4-4-4-4-4-4-4-4-4-4-------------------------------------------------------------------------------|
D|-4-4-4-4-4-4-4-4-4-4-4-4-4-6-6-6-6-6-6-6-6-6-6-6-6-6-2-2-2-2-2-2-2-2-2-2-2-2-2-4-4-4-4-4-4-4-4-4-4-4-4-4-|
A|-2-2-2-2-2-2-2-2-2-2-2-2-2-6-6-6-6-6-6-6-6-6-6-6-6-6-2-2-2-2-2-2-2-2-2-2-2-2-2-4-4-4-4-4-4-4-4-4-4-4-4-4-|
E|---------------------------4-4-4-4-4-4-4-4-4-4-4-4-4-0-0-0-0-0-0-0-0-0-0-0-0-0-2-2-2-2-2-2-2-2-2-2-2-2-2-|

e|---------------------------------------------------------------------------------------------------------|
B|---------------------------------------------------------------------------------------------------------|
G|-4-4-4-4-4-4-4-4-4-4-4-4-4-------------------------------------------------------------------------------|
D|-4-4-4-4-4-4-4-4-4-4-4-4-4-6-6-6-6-6-6-6-6-6-6-6-6-6-2-2-2-2-2-2-2-2-2-2-2-2-2-4-4-4-4-4-4-4-4-4-4-4-4-4-|
A|-2-2-2-2-2-2-2-2-2-2-2-2-2-6-6-6-6-6-6-6-6-6-6-6-6-6-2-2-2-2-2-2-2-2-2-2-2-2-2-4-4-4-4-4-4-4-4-4-4-4-4-4-|
E|---------------------------4-4-4-4-4-4-4-4-4-4-4-4-4-0-0-0-0-0-0-0-0-0-0-0-0-0-2-2-2-2-2-2-2-2-2-2-2-2-2-|



************************************

| ~  Vibrato
| x  Dead note
| /  Slide up
| h  Hammer-on
| 
*  palm mute 

************************************

            
            
Suggest correction
Creating personal tab
Creating personal tab
You can edit any tab online and save it as your Personal.

You can edit, replace or remove any tab part or add personal notes – all changes will be seen only by you.

Personal tabs can be accessed anytime from any device, even offline.
Learn more »
Give kudos to tab author, rate the tab!
1 2 3 4 5
comments
print report bad tab
guest
You may want to rate the tab now too:
select rating
Wanna post a correction for this tab? Suggest correction