Oops, an error
Loading. Please wait.

The 1975 - The Sound Somebody Else Mashup Acoustic tab

103 views 12 this week
no commentswrite comment
1 2 3 4 5
3 more votes to show rating
add to favorites
×
Save as Personal and add changes to this tab that will be seen only by you. Learn more ›
×
You can save this tab as Personal to edit and correct it or add notes. All changes will be seen only by you. Learn more »
launch autoscroll
font size
0
reset
how to read this tab
guitar tuner
edit
Autoscroll
slow
fast
+/-
esc
set tempo
stop
About this tab version
I saw a guy on youtube do a mashup of this but had no tabs so i decided to give it a shot and transpose it into an easier version. im not too familiar with the songs so sorry for the mistakes. this is just so youll get the main idea of how the melody sounds like. Was this info helpful? Yes No
The Sound x Somebody Else - The 1975
reference: https://www.youtube.com/watch?v=LNKpUeBgSnQ
No capo

THE SOUND

[Intro]
e|-------0h1p0-------|-----------------|----------0---------|
B|--1h3---------3-3--|--3--1--3--1--3--|--3-3--1------------|
G|-------------------|-----------------|-------------0-0-0--|
D|-------------------|-----------------|--------------------| 2x
A|-------------------|-----------------|--------------------|
E|-------------------|-----------------|--------------------|

[Chorus]
e|-------0h1p0-------|-----------------|----------0---------|
B|--1h3---------3-3--|--3--1--3--1--3--|--3-3--1------------|
G|-------------------|-----------------|-------------0-0-0--|
D|-------------------|-----------------|--------------------| 2x
A|-------------------|-----------------|--------------------|
E|-------------------|-----------------|--------------------|

[Verse 1]
e|--0-0-0------------------|--0--3--0---------------|--------0--1--0-----|-------------------|
B|-------------------------|-----------3--1--3-3-1--|-----3-----------3--|--3--1--3--3-3--1--|
G|---------2--0-0--0--2----|------------------------|--2-----------------|-------------------|
D|-------------------------|------------------------|--------------------|-------------------|
A|-------------------------|------------------------|--------------------|-------------------|
E|-------------------------|------------------------|--------------------|-------------------|

e|---------------|---------------------|-----0------------|
B|--3---------3--|--1--3--1--3-3-3--1--|--3-----3-3--1-1--|
G|-----0-0-0-----|---------------------|------------------|
D|---------------|---------------------|------------------|
A|---------------|---------------------|------------------|
E|---------------|---------------------|------------------|

[Pre-Chorus]
e|-----3-3-3-3-----|--3-3-0-3-----3-3--0--|--3-3-------------|
B|--3-----------3--|-----------1----------|-------1-----0-0--|
G|-----------------|----------------------|----------2-------|
D|-----------------|----------------------|------------------|
A|-----------------|----------------------|------------------|
E|-----------------|----------------------|------------------|

SOMEBODY ELSE

[Verse 1]
e|--------------------------|-------------------------|--0-------------|------------------|
B|--1p0--------3--0-0--1-1--|--1p0--------3--0-0-0-0--|-----3--1p0-----|--------3---1--0--|
G|-------2--0---------------|-------2--0--------------|-------------2--|--0--2------------|
D|--------------------------|-------------------------|----------------|------------------|
A|--------------------------|-------------------------|----------------|------------------|
E|--------------------------|-------------------------|----------------|------------------|

e|-------0-------|
B|--0-0-----1-1--|
G|---------------|
D|---------------|
A|---------------|
E|---------------|

[Chorus]
e|--3-------------------|----------------------------|----------------------|-------------------------|
B|-----1-1-1-1-1--------|--1-1--------1-1-1-0-0-0-0--|-----1-1-----1-----1--|--1--------1-1--0-0-0-0--|
G|----------------2--0--|-------2--0-----------------|--2-------2-----2-----|-----2--0----------------|
D|----------------------|----------------------------|----------------------|-------------------------|
A|----------------------|----------------------------|----------------------|-------------------------|
E|----------------------|----------------------------|----------------------|-------------------------|

e|--------------------|--------------------|--------------------|
B|--1-------1-1-------|--1--------1--------|--1-1-1--0-0-0-0----|
G|-----2-2-------2-0--|-----2--0-----2--0--|--------------------|
D|--------------------|--------------------|--------------------|
A|--------------------|--------------------|--------------------|
E|--------------------|--------------------|--------------------|

e|-----3-------------------|---------------------------|
B|--0-----1-1-----1--------|--1-1-------1-1-1-0-0-0-0--|
G|-------------2-----2--0--|-------2-0-----------------|
D|-------------------------|---------------------------|
A|-------------------------|---------------------------|
E|-------------------------|---------------------------|

THE SOUND Solo

e|---------0------------|--------0----------------|--0-----------------|---------0---------|
B|--1/3\1-----3--1--1~--|--3--1-----3p1~--1--3-1--|-----3--1-----1--0--|--1-0-1----3p1--1--|
G|----------------------|-------------------------|-----------2--------|-------------------|
D|----------------------|-------------------------|--------------------|-------------------|
A|----------------------|-------------------------|--------------------|-------------------|
E|----------------------|-------------------------|--------------------|-------------------|

e|--------0----------|
B|--3--1-----3p1--1--|
G|-------------------|
D|-------------------| 2x
A|-------------------|
E|-------------------|

[Outro]

SOMEBODY ELSE 

e|--5h8p5-----|--5h8p5-----|
B|---------8--|---------8--|
G|------------|------------|
D|------------|------------|
A|------------|------------|
E|------------|------------|


*********************

| h hammer on
| / slide up
| \ slide down
| p pull off

*********************

            
            
Suggest correction
Creating personal tab
Creating personal tab
You can edit any tab online and save it as your Personal.

You can edit, replace or remove any tab part or add personal notes – all changes will be seen only by you.

Personal tabs can be accessed anytime from any device, even offline.
Learn more »
Give kudos to tab author, rate the tab!
1 2 3 4 5
comments
print report bad tab
guest
You may want to rate the tab now too:
select rating
Wanna post a correction for this tab? Suggest correction