Oops, an error
Loading. Please wait.

A Minor Pentatonic Tab

version 2
version 2

Whole song

1,452 views 24 this week
1 commentread comment
1 2 3 4 5
x 12
add to favorites
launch autoscroll
font size
0
reset
how to read this tab
guitar tuner
Autoscroll
slow
fast
+/-
esc
set tempo
stop
Help us to improve Ultimate-Guitar.com Take our survey!
×
Author
Difficulty
novice
-------------------------------------------------------------------------------
                             a minor pentatonic
-------------------------------------------------------------------------------
Tabbed by:
markhoney89@hotmail.co.uk

Tuning:standard
shape 1
e|--------------------------5-8----------------------------------------------|
B|---------------------5-8---------------------------------------------------|
G|----------------5-7--------------------------------------------------------|
D|-----------5-7-------------------------------------------------------------|
A|------5-7------------------------------------------------------------------|
E|-5-8-----------------------------------------------------------------------|
shape 2
e|------------------------------8-10-----------------------------------------|
B|------------------------8-10-----------------------------------------------|
G|-------------------7-9-----------------------------------------------------|
D|-------------7-10----------------------------------------------------------|
A|-------7-10----------------------------------------------------------------|
E|-8-10----------------------------------------------------------------------|
shape 3
e|-----------------------------------10-12-----------------------------------|
B|----------------------------10-13------------------------------------------|
G|----------------------9-12-------------------------------------------------|
D|---------------10-12-------------------------------------------------------|
A|--------10-12--------------------------------------------------------------|
E|-10-12---------------------------------------------------------------------|
shape 4
e|--------------------------0-3----------------------------------------------|
B|---------------------1-3---------------------------------------------------|
G|----------------0-2--------------------------------------------------------|
D|-----------0-2-------------------------------------------------------------|
A|------0-3------------------------------------------------------------------|
E|-0-3-----------------------------------------------------------------------|
shape 5
e|--------------------------3-5----------------------------------------------|
B|---------------------3-5---------------------------------------------------|
G|----------------2-5--------------------------------------------------------|
D|-----------2-5-------------------------------------------------------------|
A|------3-5------------------------------------------------------------------|
E|-3-5-----------------------------------------------------------------------|
Suggest correction
comments
print report bad tab
1 comment total.
0 reply
dean.pastrello 89 Dec 30, 2015 12:02 AM

Excellent!

guest
You may want to rate the tab now too:
select rating
Wanna post a correction for this tab? Suggest correction