Oops, an error
Loading. Please wait.

A Minor Scale Tab

version 1
version 1

Whole song

Interactive

78,770 views 198 this week
2 commentsread comments
1 2 3 4 5
x 25
add to favorites
launch autoscroll
font size
0
reset
how to read this tab
guitar tuner
Autoscroll
slow
fast
+/-
esc
set tempo
stop
Help us to improve Ultimate-Guitar.com Take our survey!
×
Author
Difficulty
[Ascending]
                       
|------------------------------5-7-8-| 
|------------------------5-6-8-------| 
|------------------4-5-7-------------| 
|--------------5-7-------------------|
|--------5-7-8-----------------------| 
|-5-7-8------------------------------| 


[Descending]

|-8-7-5-----------------------------|
|-------8-6-5-----------------------|
|-------------7-5-4-----------------|
|-------------------7-5-------------|
|-----------------------8-7-5-------|
|-----------------------------8-7-5-|
Suggest correction
comments
print report bad tab
2 comments total.
+1 reply
jesseboulting 10 Mar 29, 2013 06:18 AM

Good tab
4555445555

+1 reply
justcool7 55 Feb 06, 2014 04:15 PM

thanks very helpful

guest
You may want to rate the tab now too:
select rating
Wanna post a correction for this tab? Suggest correction