Oops, an error
Loading. Please wait.

Basic Blues Scale In A Tab

13,530 views 45 this week
no commentswrite comment
1 2 3 4 5
excellent!
x 9
add to favorites
launch autoscroll
font size
0
reset
how to read this tab
guitar tuner
Autoscroll
slow
fast
+/-
esc
set tempo
stop
Help us to improve Ultimate-Guitar.com Take our survey!
×
Author
                        A Blues

matreynolds16@yahoo.co.uk

A Blues shape 1 5th position
e|-------------------------5-8-5-------------------------|
B|---------------------5-8-------8-5---------------------|
G|---------------5-7-8---------------8-7-5---------------|
D|-----------5-7---------------------------7-5-----------|
A|-----5-6-7-----------------------------------7-6-5-----|
E|-5-8-----------------------------------------------8-5-|

A Blues shape 1 17th position
e|-------------------------------------17-20-17--------------------------------------|
B|-------------------------------17-20----------20-17--------------------------------|
G|----------------------17-19-20----------------------20-19-17-----------------------|
D|----------------17-19----------------------------------------19-17-----------------|
A|-------17-18-19----------------------------------------------------19-18-17--------|
E|-17-20-----------------------------------------------------------------------20-17-|

A Blues shape 2 6th position
e|-----------------------------8-10-8-----------------------------|
B|------------------------8-10--------10-8------------------------|
G|------------------7-8-9------------------9-8-7------------------|
D|-------------7-10------------------------------10-7-------------|
A|------6-7-10----------------------------------------10-7-6------|
E|-8-10------------------------------------------------------10-8-|

A Blues shape 2 18th position
e|-------------------------------------20-22-20--------------------------------------|
B|-------------------------------20-22----------22-20--------------------------------|
G|----------------------19-20-21----------------------21-20-19-----------------------|
D|----------------19-22----------------------------------------22-19-----------------|
A|-------18-19-22----------------------------------------------------22-19-18--------|
E|-20-22-----------------------------------------------------------------------22-20-|

A Blues shape 3 9th position
e|------------------------------------10-11-12-11-10------------------------------------|
B|------------------------------10-13----------------13-10------------------------------|
G|-------------------------9-12----------------------------12-9-------------------------|
D|----------------10-12-13--------------------------------------13-12-10----------------|
A|----------10-12--------------------------------------------------------12-10----------|
E|-10-11-12--------------------------------------------------------------------12-11-10-|

A Blues shape 4 11th position
e|----------------------------------11-12-15-12-11-----------------------------------|
B|----------------------------13-15----------------15-13-----------------------------|
G|----------------------12-14----------------------------14-12-----------------------|
D|-------------12-13-14----------------------------------------14-13-12--------------|
A|-------12-15----------------------------------------------------------15-12--------|
E|-12-15-----------------------------------------------------------------------15-12-|

A Blues shape 5 2nd position
e|-------------------------3-5-3-------------------------|
B|-------------------3-4-5-------5-4-3-------------------|
G|---------------2-5-------------------5-2---------------|
D|-----------2-5---------------------------5-2-----------|
A|-----3-5-6-----------------------------------6-5-3-----|
E|-3-5-----------------------------------------------5-3-|

A blues shape 5 15th position
e|-------------------------------------15-17-15--------------------------------------|
B|----------------------------15-16-17----------17-16-15-----------------------------|
G|----------------------14-17----------------------------17-14-----------------------|
D|----------------14-17----------------------------------------17-14-----------------|
A|-------15-17-18----------------------------------------------------18-17-15--------|
E|-15-17-----------------------------------------------------------------------17-15-|
Suggest correction
What's this?
You can suggest a correction to this tab. Community and Mods will review your correction and vote to approve or reject it.
comments
print report bad tab
guest
You may want to rate the tab now too:
select rating
Please do not post tabs as comments. Select "correction" instead!