Oops, an error
Loading. Please wait.

Basic Blues Scale In G Tab

version 2
version 2

Whole song

2,975 views 1 this week
no commentswrite comment
1 2 3 4 5
2 more votes to show rating
add to favorites
launch autoscroll
font size
0
reset
how to read this tab
guitar tuner
Autoscroll
slow
fast
+/-
esc
set tempo
stop
Help us to improve Ultimate-Guitar.com Take our survey!
×
Author
                                         G Blues
matreynolds16@yahoo.co.uk

G blues shape 1 3rd position
e|-------------------------3-6-3-------------------------|
B|---------------------3-6-------6-3---------------------|
G|---------------3-5-6---------------6-5-3---------------|
D|-----------3-5---------------------------5-3-----------|
A|-----3-4-5-----------------------------------5-4-3-----|
E|-3-6-----------------------------------------------6-3-|

G blues shape 1 15th position
e|-------------------------------------15-18-15--------------------------------------|
B|-------------------------------15-18----------18-15--------------------------------|
G|----------------------15-17-18----------------------18-17-15-----------------------|
D|----------------15-17----------------------------------------17-15-----------------|
A|-------15-16-17----------------------------------------------------17-16-15--------|
E|-15-18-----------------------------------------------------------------------18-15-|

g blues shape 2 4th position
e|-------------------------6-8-6-------------------------|
B|---------------------6-8-------8-6---------------------|
G|---------------5-6-7---------------7-6-5---------------|
D|-----------5-8---------------------------8-5-----------|
A|-----4-5-8-----------------------------------8-5-4-----|
E|-6-8-----------------------------------------------6-8-|

G blues shape 2 16th position
e|-------------------------------------18-20-18--------------------------------------|
B|-------------------------------18-20----------20-18--------------------------------|
G|----------------------17-18-19----------------------19-18-17-----------------------|
D|----------------17-20----------------------------------------20-17-----------------|
A|-------16-17-20----------------------------------------------------20-17-16--------|
E|-18-20-----------------------------------------------------------------------20-18-|

G blues shape 3 7th position
e|-------------------------------8-9-10-9-8-------------------------------|
B|--------------------------8-11------------11-8--------------------------|
G|---------------------7-10----------------------10-7---------------------|
D|-------------8-10-11--------------------------------11-10-8-------------|
A|--------8-10------------------------------------------------10-8--------|
E|-8-9-10----------------------------------------------------------10-9-8-|

G blues shape 3 19th position
e|-------------------------------------20-21-22-21-20--------------------------------------|
B|-------------------------------20-23----------------23-20--------------------------------|
G|-------------------------19-22----------------------------22-19--------------------------|
D|----------------20-22-23----------------------------------------23-22-20-----------------|
A|----------20-22----------------------------------------------------------22-20-----------|
E|-20-21-22-----------------------------------------------------------------------22-21-20-|

G blues shape 4 9th position
e|----------------------------------9-10-13-10-9----------------------------------|
B|----------------------------11-13--------------13-11----------------------------|
G|----------------------10-12--------------------------12-10----------------------|
D|-------------10-11-12--------------------------------------12-11-10-------------|
A|-------10-13--------------------------------------------------------13-10-------|
E|-10-13--------------------------------------------------------------------13-10-|

G blues shape 5 open position
e|-------------------------1-3-1-------------------------|
B|-------------------1-2-3-------3-2-1-------------------|
G|---------------0-3-------------------3-0---------------|
D|-----------0-3---------------------------3-0-----------|
A|-----1-3-4-----------------------------------4-3-1-----|
E|-1-3-----------------------------------------------3-1-|

G blues shape 5 12th position
e|-------------------------------------13-15-13--------------------------------------|
B|----------------------------13-14-15----------15-14-13-----------------------------|
G|----------------------12-15----------------------------15-12-----------------------|
D|----------------12-15----------------------------------------15-12-----------------|
A|-------13-15-16----------------------------------------------------16-15-13--------|
E|-13-15-----------------------------------------------------------------------15-13-|
Suggest correction
Give kudos to tab author, rate the tab!
1 2 3 4 5
comments
print report bad tab
guest
You may want to rate the tab now too:
select rating
Wanna post a correction for this tab? Suggest correction