Oops, an error
Loading. Please wait.

Basic Sweep Tab

20,944 views 6 this week
2 commentsread comments
1 2 3 4 5
accurate
x 9
add to favorites
launch autoscroll
font size
0
reset
how to read this tab
guitar tuner
Tab Pro tools
  • play this tab
  • loop segment
  • change instrument
  • show fretboard
  • metronome
×
Best way to learn
"Basic Sweep"
Autoscroll
slow
fast
+/-
esc
set tempo
stop
Contributor
-------------------------------------------------------------------------------
                             Basic Sweep - Contributed by Kevin Wells
-------------------------------------------------------------------------------
Tabbed by: Kevin Wells
Email:Noziamusic@hotmail.co.uk

Tuning:EBGDAE

e|------------10-------------------------------------------------------------|
B|--------11------11---------------------------------------------------------|
G|----12-------------12------------------------------------------------------|
D|-13--------------------13--------------------------------------------------|
A|---------------------------------------------------------------------------|
E|---------------------------------------------------------------------------|

This is the most basic sweep to begin learning how to sweep.
I have been learning how to improve on my sweeping for a while, and i find this one 
for speed and accuracy.


| /  slide up
| \  slide down
| h  hammer-on
| p  pull-off
| ~  vibrato
| +  harmonic
| x  Mute note
===============================================================================
comments
print report bad tab
2 comments total.
+3 reply
Joe_Guitar10 wrote on August 17 2009, 05:17 pm

It's alright but I can think of an improvement, a problem I find with that is that it has no pivot for the return on the bottom string (or the top if you want continuous motion) - so here's my suggestion for improving it (whether it's musically correct or not.)

e|------------10h13------------------|
B|--------11--------11---------------|
G|----12---------------10-------12---| and so on...
D|-13---------------------10h13------|
A|-----------------------------------|
E|-----------------------------------|

This has basic techniques in like hammering and also one finger roll that isn't too complicated. Hopefully this should make it easier to make a continuous sweep from.

0 reply
Banjocal wrote on May 14 2010, 06:07 pm

but its just a maj7th shape arpegiated...

I want to post or [tab]
guest
You may want to rate the tab now too:
select rating
Please do not post tabs as comments. Select "correction" instead!