Oops, an error
Loading. Please wait.

E Chinese Scale Tab

26,283 views 42 this week
3 commentsread comments
1 2 3 4 5
accurate
x 8
add to favorites
launch autoscroll
font size
0
reset
how to read this tab
guitar tuner
Tab Pro tools
  • play this tab
  • loop segment
  • change instrument
  • show fretboard
  • metronome
×
Best way to learn
"E Chinese Scale"
Autoscroll
slow
fast
+/-
esc
set tempo
stop
Contributor
----------------------------------------------------------------------------
                             Chinese scale - misc scales
----------------------------------------------------------------------------
Tabbed by:steve the man
Email:allchavsrgay@hotmail.com

Tuning:standard

This scale contians the notes:E, F#, G#, B and C# 

e|---------------0-2-|-------------------4-7---|
B|-----------0-2-----|---------------5-7-------|
G|---------1---------|-------------6-----------|
D|-------2-----------|---------4-6-------------|
A|-----2-------------|-----4-7-----------------|
E|-0-2---------------|-4-7---------------------|

e|---------------------7-9-|--------------------------9-12--|
B|-----------------7-9-----|---------------------9-12-------|
G|-------------6-9---------|----------------9-11------------|
D|---------6-9-------------|-----------9-11-----------------|
A|-----7-9-----------------|------9-11----------------------|
E|-7-9---------------------|-9-12---------------------------|
comments
print report bad tab
3 comments total.
0 reply
slipknotrox wrote on February 7 2009, 08:30 am

haha, kool scale :)

0 reply
Killswitch666 wrote on May 6 2009, 02:04 am

Cool, yet very simple haha :p

0 reply
geodepe wrote on February 5 2013, 06:32 pm

Nice scale, but wondering if there is a mistake

should this
e|---------------------7-9-|--------------------------9-12--|
B|-----------------7-9-----|---------------------9-12-------|
G|-------------6-9---------|----------------9-11------------|
D|---------6-9-------------|-----------9-11-----------------|
A|-----7-9-----------------|------9-11----------------------|
E|-7-9---------------------|-9-12---------------------------|
be
e|---------------------7-9-|--------------------------9-12--|
B|-----------------7-9-----|---------------------9-12-------|
G|-------------6-9---------|----------------9-11------------|
D|---------6-9-------------|-----------9-11-----------------|
A|-----7-9-----------------|------9-12----------------------|
E|-7-9---------------------|-9-12---------------------------|

I want to post or [tab]
guest
You may want to rate the tab now too:
select rating
Please do not post tabs as comments. Select "correction" instead!