Oops, an error
Loading. Please wait.

E Major Scale Tab

version 1
version 1

Whole song

Interactive

55,568 views 87 this week
no commentswrite comment
1 2 3 4 5
x 13
add to favorites
launch autoscroll
font size
0
reset
how to read this tab
guitar tuner
Autoscroll
slow
fast
+/-
esc
set tempo
stop
Help us to improve Ultimate-Guitar.com Take our survey!
×
e|-----------------------------0-2-4-|-7-5---------------------|
B|-----------------------0-2-4-------|-----7-5-----------------|
G|-------------------1-2-------------|---------8-6-------------|
D|-------------1-2-4-----------------|-------------7-6---------|
A|-------0-2-4-----------------------|-----------------7-6-----|
E|-0-2-4-----------------------------|---------------------7-5-|

e|-----------------------------------9-11-12-|
B|---------------------------9-10-12---------|
G|----------------------9-11-----------------|
D|-----------------9-11----------------------|
A|---------9-11-12---------------------------|
E|-9-11-12-----------------------------------|

e|-17-16-14-------------------------------------------|
B|----------17-16-14----------------------------------|
G|-------------------16-14-13-------------------------|
D|----------------------------16-14-13----------------|
A|-------------------------------------16-14----------|
E|-------------------------------------------17-16-14-|

e|-------------------------------------------19-21-|
B|----------------------------------19-21-22-------|
G|-------------------------18-20-21----------------|
D|----------------18-19-21-------------------------|
A|-------18-19-21----------------------------------|
E|-19-21-------------------------------------------|
Suggest correction
comments
print report bad tab
guest
You may want to rate the tab now too:
select rating
Wanna post a correction for this tab? Suggest correction