Oops, an error
Loading. Please wait.

E Minor Scale tab

52,024 views 213 this week
4 commentsread comments
1 2 3 4 5
x 14
add to favorites
×
Save as Personal and add changes to this tab that will be seen only by you. Learn more ›
×
You can save this tab as Personal to edit and correct it or add notes. All changes will be seen only by you. Learn more »
launch autoscroll
font size
0
reset
how to read this tab
guitar tuner
edit
Autoscroll
slow
fast
+/-
esc
set tempo
stop
Many positions that can be used in the E minor, G major and corresponding modal scales.

e|--------------------------------------------0--2--3-------------|
B|-----------------------------------0--1--3----------------------|
G|-----------------------------0--2-------------------------------|
D|--------------------0--2--4-------------------------------------|
A|-----------0--2--3----------------------------------------------|
E|--0--2--3-------------------------------------------------------|

e|--------------------------------------------2--3--5-------------|
B|--------------------------------------3--5----------------------|
G|-----------------------------2--4--5----------------------------|
D|--------------------2--4--5-------------------------------------|
A|-----------2--3--5----------------------------------------------|
E|--2--3--5-------------------------------------------------------|

e|--------------------------------------------5--7----------------|
B|-----------------------------------5--7--8----------------------|
G|--------------------------4--5--7-------------------------------|
D|-----------------4--5--7----------------------------------------|
A|-----------5--7-------------------------------------------------|
E|--5--7--8-------------------------------------------------------|

e|------------------------------------------------7--8--10--------|
B|--------------------------------------7--8--10------------------|
G|--------------------------------7--9----------------------------|
D|----------------------7--9--10----------------------------------|
A|------------7--9--10--------------------------------------------|
E|--7--8--10------------------------------------------------------|

e|------------------------------------------------------8--10--12--|
B|----------------------------------------------10--12-------------|
G|-----------------------------------9--11--12---------------------|
D|------------------------9--10--12--------------------------------|
A|-------------9--10--12-------------------------------------------|
E|--8--10--12------------------------------------------------------|

            
            
Suggest correction
Creating personal tab
Creating personal tab
You can edit any tab online and save it as your Personal.

You can edit, replace or remove any tab part or add personal notes – all changes will be seen only by you.

Personal tabs can be accessed anytime from any device, even offline.
Learn more »
comments
print report bad tab
4 comments total. Showing first comments.
0 reply
rmortell 10 Dec 12, 2015 02:02 PM

I think the C# is wrong in this scale. For E minor (and G major), the only sharp is the F#, which on the A string would shift the 4th fret to the 3rd (A= 0-2-3), and so on.

0 reply
nmchugh1 10 Dec 03, 2016 09:31 PM

When going through G major scale patterns if you want to switch to E minor do you just move down three frets and follow the minor scale formulae? W H W W H W W? Been trying this and it does not always work?

guest
You may want to rate the tab now too:
select rating
Wanna post a correction for this tab? Suggest correction