Oops, an error
Loading. Please wait.

G Major Scale Bass

30,178 views 45 this week
no commentswrite comment
1 2 3 4 5
x 11
add to favorites
launch autoscroll
font size
0
reset
guitar tuner
×
Best way to learn
"G Major Scale"
Autoscroll
slow
fast
+/-
esc
set tempo
stop
Author
Difficulty
--One Octave--
G|------------------|
D|-----------2-4-5--|
A|-----2-3-5--------|
E|-3-5--------------|

--Two Octave--
|-----4-5-7-9-11-12-|
|-5-7---------------|
|-------------------|
|-------------------|

Just work at it, they're real easy and eventually you wil be able to do them in your sleep! :)
Suggest correction
comments
print report bad tab
guest
You may want to rate the tab now too:
select rating
Wanna post a correction for this tab? Suggest correction