Oops, an error
Loading. Please wait.

G Minor Pentatonic Tab

22,713 views 27 this week
6 commentsread comments
1 2 3 4 5
accurate
x 14
add to favorites
launch autoscroll
font size
0
reset
how to read this tab
guitar tuner
Autoscroll
slow
fast
+/-
esc
set tempo
stop
Help us to improve Ultimate-Guitar.com Take our survey!
×
Author
G Minor Pentatonic Scale

|------------------------------3--|
|-------------------------3--6----|
|-------------------3--5----------|
|-------------3--5----------------|
|----1--3--5----------------------|
|-3-------------------------------|
Suggest correction
comments
print report bad tab
6 comments total. Showing first comments.
0 reply
bobbobandbob 10 wrote on March 19 2003, 12:00 am

Instead of playing the "1" on the A-string, it's easier to play a 6 on the E-string, you have to move around alot less

-2 reply
davbell22602 10 wrote on August 14 2003, 12:00 am

|-------3-5------|
|------3-5-------|
|-----3-6--------|
|----3-6---------|
|---3-5----------|
|-3-5------------|

+2 reply
Dauv 10 wrote on December 16 2006, 08:35 pm

|-------3-6------|
|------3-6-------|
|-----3-5--------|
|----3-5---------|
|---3-5----------|
|-3-6------------|

guest
You may want to rate the tab now too:
select rating
Wanna post a correction for this tab? Suggest correction