Oops, an error
Loading. Please wait.

G Minor Pentatonic Tab

23,616 views 15 this week
6 commentsread comments
1 2 3 4 5
x 15
add to favorites
launch autoscroll
font size
0
reset
how to read this tab
guitar tuner
Autoscroll
slow
fast
+/-
esc
set tempo
stop
Author
G Minor Pentatonic Scale

|------------------------------3--|
|-------------------------3--6----|
|-------------------3--5----------|
|-------------3--5----------------|
|----1--3--5----------------------|
|-3-------------------------------|
Suggest correction
comments
print report bad tab
6 comments total. Showing first comments.
+1 reply
bobbobandbob 10 Mar 18, 2003 07:00 PM

Instead of playing the "1" on the A-string, it's easier to play a 6 on the E-string, you have to move around alot less

+3 reply
Dauv 10 Dec 16, 2006 03:35 PM

|-------3-6------|
|------3-6-------|
|-----3-5--------|
|----3-5---------|
|---3-5----------|
|-3-6------------|

0 reply
beno93 277 Jun 09, 2007 04:13 PM

dav bell u bell end do u no what a scale is.

dauv is rite but its just an other way of playin it
fret 6 on E is A# so by missing that out and playing fret 1 also A# on the A string its just the same 5/5

guest
You may want to rate the tab now too:
select rating
Wanna post a correction for this tab? Suggest correction