Oops, an error
Loading. Please wait.

Hijaz Scale Tab

6,688 views 24 this week
5 commentsread comments
1 2 3 4 5
x 4
add to favorites
launch autoscroll
font size
0
reset
how to read this tab
guitar tuner
Autoscroll
slow
fast
+/-
esc
set tempo
stop
Help us to improve Ultimate-Guitar.com Take our survey!
×
Difficulty
Tuning
novice
D A D G B E
e|--------------------------------------------------------------------------|
B|-----------------7-8-10-11-10-11-8-10-8-10-7-8-7-8------------------------|
G|-------------7-8-----------------------------------8-7--------------------|
D|-----4-5-7-8-------------------------------------------8-7\5-7-5-7-4-5-4-5|
A|-5-6----------------------------------------------------------------------|
D|0-------------------------------------------------------------------------|

e|---------------------------------------------------------------|
B|---------------------------------------------------------------|
G|---------------------------------------------------------------|
D|---------------------------------------------------------------|
A|6-5-3-5-6---------5\3/6\5--------------------------------------|
D|------------------------0--------------------------------------|

| /  slide up
| \  slide down
| h  hammer-on
| p  pull-off
| ~  vibrato
| +  harmonic
| x  Mute note

I hope you guys enjoy.
Suggest correction
comments
print report bad tab
5 comments total. Showing first comments.
0 reply
david.marrufo.7 10 Sep 08, 2013 02:46 PM

Nice middle east tonality thanks.

0 reply
johnguitarsund 10 Jan 31, 2014 06:18 AM

Your notation is not correct - the Hijaz scale is the dominant mode of the harmonic minor scale, so the 7th note should be flat.

Like this:

-------------------------------8-10)--
B|--------------------7-8-10-11-------
G|-------------5-(7-8-----------------
D|-----4-5-7-8------------------------
A|-5-6--------------------------------
D|0-----------------------------------

0 reply
devildriver11 10 Jun 10, 2014 12:20 AM

very nice, a very unique scale i must say

guest
You may want to rate the tab now too:
select rating
Wanna post a correction for this tab? Suggest correction