Oops, an error
Loading. Please wait.

Major And Minor Scales Bass Tab

280,942 views 885 this week
15 commentsread comments
1 2 3 4 5
excellent!
x 195
add to favorites
launch autoscroll
font size
0
reset
guitar tuner
Tab Pro tools
  • play this tab
  • loop segment
  • change instrument
  • show fretboard
  • metronome
×
Best way to learn
"Major And Minor Scales"
Autoscroll
slow
fast
+/-
esc
set tempo
stop
Contributor
-------------------------------------------------------------------------------
                             Major and Minor scales
-------------------------------------------------------------------------------

Tabbed By : Zero is great man.
Tuning: Standard: Low to high: EADG


Ab/G# major
G|------------------|
D|------------3-5-6-|
A|-----3-4-6--------|
E|-4-6--------------|


Ab/G# minor
G|-----------------|
D|-------------4-6-|
A|-------4-6-7-----|
E|-4-6-7-----------|


A major
G|-----------------|
D|-----------4-6-7-|
A|-----4-5-7-------|
E|-5-7-------------|


A minor
G|-----------------|
D|-------------5-7-|
A|-------5-7-8-----|
E|-5-7-8-----------|


A#/Bb major
G|-----------------|
D|-----------5-7-8-|
A|-----5-6-8-------|
E|-6-8-------------|


A#/Bb minor
G|-------------1-3-|
D|-------1-3-4-----|
A|-1-3-4-----------|
E|-----------------|


B/Cb major
G|-----------1-3-4-|
D|-----1-2-4-------|
A|-2-4-------------|
E|-----------------|


B/Cb major
G|-------------2-4-|
D|-------2-4-5-----|
A|-2-4-5-----------|
E|-----------------|


C major
G|-----------2-4-5-|
D|-----2-3-5-------|
A|-3-5-------------|
E|-----------------|


C minor
G|-------------3-5-|
D|-------3-5-6-----|
A|-3-5-6-----------|
E|-----------------|


C#/Db major
G|-----------3-5-6-|
D|-----3-4-6-------|
A|-4-6-------------|
E|-----------------|


C#/Db minor
G|-------------4-6-|
D|-------4-6-7-----|
A|-4-6-7-----------|
E|-----------------|


D major
G|-----------4-6-7-|
D|-----4-5-7-------|
A|-5-7-------------|
E|-----------------|


D minor
G|-------------5-7-|
D|-------5-7-8-----|
A|-5-7-8-----------|
E|-----------------|


D#/Eb major
G|-----------5-7-8-|
D|-----5-6-8-------|
A|-6-8-------------|
E|-----------------|


D#/Eb minor
G|-------------6-8-|
D|-------6-8-9-----|
A|-6-8-9-----------|
E|-----------------|


E Major
G|-----------6-8-9-|
D|-----6-7-9-------|
A|-7-9-------------|
E|-----------------|

G|-----------------|
D|-------------1-2-|
A|-------0-2-4-----|
E|-0-2-4-----------|


E minor
G|-----------------|
D|-------------0-2-|
A|-------0-2-3-----|
E|-0-2-3-----------|


E#/F major
G|-----------------|
D|-----------0-2-3-|
A|-----0-1-3-------|
E|-1-3-------------|


E#/F minor
G|-----------------|
D|-------------1-3-|
A|-------1-3-4-----|
E|-1-3-4-----------|


F#/Gb major
G|-----------------|
D|-----------1-3-4-|
A|-----1-2-4-------|
E|-2-4-------------|


F#/Gb minor
G|-----------------|
D|-------------2-4-|
A|-------2-4-5-----|
E|-2-4-5-----------|


G major
G|-----------------|
D|-----------2-4-5-|
A|-----2-3-5-------|
E|-3-5-------------|


G minor
G|-----------------|
D|-------------3-5-|
A|-------3-5-6-----|
E|-3-5-6-----------|

This tab is fall all Bass guitar players, whether you are a beginner, or you
just want a quick reference guide, this tab is for you. I suggest printing this
tab cause you never know when you might just need it.
===============================================================================
comments
print report bad tab
15 comments total. Showing first comments.
-2 reply
SdTuEoVlEcN wrote on March 29 2007, 11:56 am

well done on this tab man
it's ok cool
but technically the scales are played in two octaves with bass and guitar unlike the keyboard/pinao which is usually one unless your really talented and can play bass and tremble clef scales
but other than that the scales are all correct or so i can tell anyway

0 reply
beatlemaniac-93 wrote on January 29 2008, 03:10 pm

treble clef, surely....

usefull...i think :p

+6 reply
blackbass18 wrote on May 15 2008, 12:43 am

great tabbing man, thanks alot
as a bit of a beginner on the bass i really appreciate it

I want to post or [tab]
guest
You may want to rate the tab now too:
select rating
Please do not post tabs as comments. Select "correction" instead!