Oops, an error
Loading. Please wait.

Major And Minor Scales Tab

109 views 99 this week
no commentswrite comment
1 2 3 4 5
1 last vote to show rating
add to favorites
launch autoscroll
font size
0
reset
how to read this tab
guitar tuner
Autoscroll
slow
fast
+/-
esc
set tempo
stop
Help us to improve Ultimate-Guitar.com Take our survey!
×
Author
Difficulty
intermediate
C Major Scale

|---------------------------------7-8
|----------------------------8-10----
|---------------------7-9-10---------
|--------------7-9-10----------------
|-------7-8-10-----------------------
|--8-10------------------------------

C Natural Minor Scale 

|-------------------------------------8
|------------------------------8-9-11--
|-----------------------7-8-10---------
|------------------8-10----------------
|----------8-10-11---------------------
|--8-10-11-----------------------------

                                           These chord shapes apply anywhere on the neck. 
  C Harmonic Minor Scale                   For example, If you wanted to play a B Maj, Min, 
                                           Ect. You would move the shape down to the 7th fret.
|----------------------------------7-8
|------------------------------8-9----
|-----------------------7-8-10--------
|------------------9-10---------------
|----------8-10-11--------------------
|--8-10-11----------------------------

C Melodic Minor Scale 

|----------------------------------7-8
|-----------------------------8-10----
|----------------------7-8-10---------
|---------------7-9-10----------------
|----------8-10-----------------------
|--8-10-11----------------------------

Suggest correction
Give kudos to tab author, rate the tab!
1 2 3 4 5
comments
print report bad tab
guest
You may want to rate the tab now too:
select rating
Wanna post a correction for this tab? Suggest correction