Oops, an error
Loading. Please wait.

Major Scales Tab

version 1
version 1

Whole song

Interactive

169,025 views 180 this week
16 commentsread comments
1 2 3 4 5
x 54
add to favorites
launch autoscroll
font size
0
reset
how to read this tab
guitar tuner
Autoscroll
slow
fast
+/-
esc
set tempo
stop
Author
e|--------------------------------------------------------------------|
B|-------------------------------0--2--4--5---------------------------|
G|-----------------------0--2--3-----------------------2--2-----------|
D|------------------1--2----------------------------2--------2--------|
A|----------0--2--4---------------------------0--4--------------0--4--|
E|--0--2--4-----------------------------------------------------------|

A MAJOR

e|--------------------------------0--2--4--6--7------------------------|
B|-----------------------0--2--4---------------------------------------|
G|-----------------1--3---------------------------------0--0-----------|
D|--------1--2--4---------------------------------1--4-------4--1------|
A|--2--4---------------------------------------2------------------2----|
E|---------------------------------------------------------------------|

B MAJOR

e|-----------------------------0--1--3--5--7--8----------------------|
B|--------------------0--1--3-------------------------1--1-----------|
G|--------------0--2-------------------------------0-------0---------|
D|-----0--2--3-----------------------------------2-----------2-------|
A|--3-----------------------------------------3----------------3-----|
E|-------------------------------------------------------------------|

C MAJOR

e|---------------------------0--2--3—5--7--9--10-----------------------|
B|------------------0--2--3-------------------------------3--3---------|
G|------------0--2-------------------------------------2--------2------|
D|---0--2--4-------------------------------------0--4-------------0--4-|
A|---------------------------------------------------------------------|
E|---------------------------------------------------------------------|

D MAJOR

e|--------------------------------------------0--------------------------|
B|-----------------------------------0--2--4-----------------------------|
G|------------------------------1--2-------------------------------------|
D|---------------------1--2--4-------------------------2--2--------------|
A|------------0--2--4--------------------------------2------2------------|
E|---0--2--4------------------------------------0--4----------4--0-------|

E MAJOR

e|-----------------------------------------0--1---------------------------|
B|-----------------------------------1--3---------------------------------|
G|--------------------------0--2--4---------------------------------------|
D|-----------------0--2--3-------------------------------3--3-------------|
A|---------0--1--3---------------------------------0--3-------3--0--------|
E|---1--3---------------------------------------1-------------------1-----|

F MAJOR

e|---------------------------------------0--2--3---------------------------|
B|------------------------------0--1--3------------------------------------|
G|------------------------0--2--------------------------------0--0---------|
D|---------------0--2--4-----------------------------------0--------0------|
A|------0--2--3-----------------------------------------2-------------2----|
E|---3-----------------------------------------------3------------------3--|

G MAJOR

e|------------------------------1--2--4--6--8--9---------------------------|
B|---------------------1--2--4-------------------------------2--2----------|
G|---------------1--3--------------------------------------1------1--------|
D|------1--3--4-----------------------------------------3------------3-----|
A|---4-----------------------------------------------4------------------4--|
E|-------------------------------------------------------------------------|

C# MAJOR

e|-----------------------------------------1--2---------------------------|
B|--------------------------------0--2--4---------------------------------|
G|--------------------------1--3------------------------------------------|
D|-----------------1--3--4--------------------------------4--4------------|
A|--------1--2--4-----------------------------------1--4--------4--1------|
E|--2--4------------------------------------------2-------------------2---|

F# MAJOR

e|---------------------------------------1--3---5---------------------------------|
B|------------------------------1--2--4-------------------------------------------|
G|---------------------0--1--3----------------------------1--1--------------------|
D|---------------1--3----------------------------------1-------1------------------|
A|------1--3--4--------------------------------------3------------3---------------|
E|---4---------------------------------------------4-----------------4------------|
Ab


e|-------------------------------1--3--5--6----------------------------------|
B|-----------------------1--3--4---------------------------------------------|
G|---------------0--2--3-----------------------------0--0--------------------|
D|-------0--1--3-------------------------------0---3------3--0---------------|
A|--1--3------------------------------------1------------------1-------------|
E|---------------------------------------------------------------------------|

Bb

e|--------------------------------0--2--4--6--7----------------------------|
B|-----------------------0--2--4-------------------------------------------|
G|------------------1--3----------------------------------0--0-------------|
D|---------1--2--4----------------------------------1--4-------4--1--------|
A|---2--4----------------------------------------2------------------2------|
E|-------------------------------------------------------------------------|

Cb MAJOR

e|-----------------------------1--2--4--6--8--9------------------------|
B|---------------------1--2--4-----------------------------------------|
G|---------------1--3-----------------------------------0--0-----------|
D|------1--3--4------------------------------------0--3-------3--0-----|
A|---4------------------------------------------1-------------------1--|
E|---------------------------------------------------------------------|

Db MAJOR

e|---------------------------1--3--4--6--8--10--11-----------------------|
B|------------------1--3--4--------------------------------4--4----------|
G|---------0--1--3------------------------------------0--3------3--0-----|
D|---1--3-------------------------------------------1-----------------1--|
A|-----------------------------------------------------------------------|
E|-----------------------------------------------------------------------|

Eb MAJOR

e|------------------------------------------1--2----------------------------|
B|---------------------------------0--2--4----------------------------------|
G|---------------------------1--3-------------------------------------------|
D|------------------1--3--4----------------------------------4--4-----------|
A|---------1--2--4------------------------------------1--4---------4--1-----|
E|--2--4-------------------------------------------2---------------------2--|

Gb MAJOR
Suggest correction
comments
print report bad tab
16 comments total. Showing first comments.
0 reply
Led_Zeppelin992 56 Jul 23, 2006 09:12 AM

Great Thanks a lot!

+4 reply
First_fret 20 Nov 12, 2006 01:48 PM

i think the first scale should start on the a string, if its the A major scale then the root should be A

0 reply
6-Lucky-6-13-6 10 Jan 02, 2008 05:34 PM

Just an
example

E------------------------------------------------7--9--10--|
B--------------------------------------7--9--10
------------|
G-----------------------------6--7--9----------------------|
D--------------------6--7--9---------------
----------------|
A-----------5--7--9----------------------------------------|
E--5--7--9-----------------------------
--------------------|
A major three notes per string (taught by guitar
teacher)

E----------------------------------------------------------|
B---------------------------------------------
-------------|
G----------------------------------------------------------|
D--------------------6--7--6--------------
-----------------|
A-----------5--7--9-----------9--7--5----------------------|
E--5--7--9----------------------------
-9--7--5-------------|
A major one octave ascending/descending (taught by music teacher)

theres seven ways to play
each scale (modes)
but each shape works the same for each note so just learn the seven shapes dont worry about the
names of the notes.

guest
You may want to rate the tab now too:
select rating
Wanna post a correction for this tab? Suggest correction