Oops, an error
Loading. Please wait.

Mellow Part Tab

1,841 views 3 this week
no commentswrite comment
1 2 3 4 5
please rate
add to favorites
launch autoscroll
font size
0
reset
how to read this tab
guitar tuner
Autoscroll
slow
fast
+/-
esc
set tempo
stop
Help us to improve Ultimate-Guitar.com Take our survey!
×
Author
A little mellow part i came up with and i really like

U-Strum Up
D-Strum Down

e---------------------|
b----------3-1--------|
g----2----2-------0---|
d---0----0-------0----|
a--2------------2-----|
e---------------------|

Strumming Pattern I use is Down Twice on C, UDUDD on Em,Am and D

C     Em     C     Am     C     D

e---------------------|
b----------3-1--------|
g----2----2-------0---|
d---0----0-------0----|
a--2------------2-----|
e---------------------|

Strumming Pattern - UDUDD

C     D     G     Em

e-----------------------------------------|
b----------3-1----------------------------|
g----2----2-------0------3-2----2---------|
d---0----0-------0------0------0----------|
a--2------------2------1------2-----------|
e-----------------------------------------|
Suggest correction
Give kudos to tab author, rate the tab!
1 2 3 4 5
comments
print report bad tab
guest
You may want to rate the tab now too:
select rating
Wanna post a correction for this tab? Suggest correction