Oops, an error
Loading. Please wait.

Odd Scales Tab

8,675 views 3 this week
2 commentsread comments
1 2 3 4 5
x 5
add to favorites
launch autoscroll
font size
0
reset
how to read this tab
guitar tuner
Autoscroll
slow
fast
+/-
esc
set tempo
stop
Help us to improve Ultimate-Guitar.com Take our survey!
×
Author
Difficulty
novice
Here is how I play a Mohammedan scale. Enjoy:

|------------------------0-1-4-5--|
|-------------------0-1-3---------|
|----------------1-2--------------|
|-----------0-2-3-----------------|
|------0-2-3----------------------|
|-0-1-4---------------------------|

Play with some hammer ons and it is very very fun!
ENIGMATIC:
|------------------------1-3-4-5---------------|
|---------------------2-4----------------------|
|--------------0-1-2-3-------------------------|
|-----------1-3--------------------------------|
|------0-1-4-----------------------------------|
|-1-3-4----------------------------------------|
Its a little odd, but it's a cool one.
Suggest correction
comments
print report bad tab
2 comments total.
0 reply
RickyThomson 889 Oct 04, 2012 09:26 AM

That sounds pretty cool. Thanks mate.

0 reply
RockBrent 10 Sep 10, 2013 06:49 PM

The first scale is a "A harmonic minor" scale.

guest
You may want to rate the tab now too:
select rating
Wanna post a correction for this tab? Suggest correction