Oops, an error
Loading. Please wait.

Sweep Picking Excercise Tab

7,823 views 9 this week
no commentswrite comment
1 2 3 4 5
excellent!
x 3
add to favorites
launch autoscroll
font size
0
reset
how to read this tab
guitar tuner
Autoscroll
slow
fast
+/-
esc
set tempo
stop
Help us to improve Ultimate-Guitar.com Take our survey!
×
Author
Difficulty
Here is a sweep picking excercise that I use to help me warm up.


e|10-----------------10-----------------10-----------------10------------------|
B|---10-----------------10-----------------10-----------------10---------------|
G|------10-----------------10-----------------10-----------------10------------|
D|---------12-----------------12-----------------12-----------------12---------|
A|------------12-----------------12-----------------12-----------------12------|
E|---------------13-10--------------13-10--------------13-10--------------13-10|


e|15p10---------------15p10---------------15p10---------------15p10---------------|
B|------11------------------11------------------11------------------11------------|
G|---------12------------------12------------------12------------------12---------|
D|------------12------------------12------------------12------------------12------|
A|---------------13-10---------------13-10---------------13-10---------------13-10|
E|--------------------------------------------------------------------------------|


e|10-----------------10-----------------10-----------------10------------------|
B|---10-----------------10-----------------10-----------------10---------------|
G|------10-----------------10-----------------10-----------------10------------|
D|---------12-----------------12-----------------12-----------------12---------|
A|------------12-----------------12-----------------12-----------------12------|
E|---------------13-10--------------13-10--------------13-10--------------13-10|


e|12p9--------------12p9---------------15p10---------------15p10---------------|
B|-----10----------------10------------------11------------------11------------|
G|--------9-----------------9-------------------12------------------12---------|
D|----------11----------------11-------------------12------------------12------|
A|-------------12-10-------------12-10----------------13-10---------------13-10|
E|-----------------------------------------------------------------------------|


e|10-----------------10-----------------10-----------------10------------------|
B|---10-----------------10-----------------10-----------------10---------------|
G|------10-----------------10-----------------10-----------------10------------|
D|---------12-----------------12-----------------12-----------------12---------|
A|------------12-----------------12-----------------12-----------------12------|
E|---------------13-10--------------13-10--------------13-10--------------13-10|

Or you could also sweep pick down to like this.


e|10----------------------------------10|
B|---10----------------------------10---|
G|------10----------------------10------|
D|---------12----------------12---------| play that 4x
A|------------12----------12------------|
E|---------------13-10-13---------------|


e|15p10----------------------------10h15------|
B|------11----------------------11------------|
G|---------12----------------12---------------|
D|------------12----------12------------------|Play that 4x
A|---------------13-10-13---------------------|
E|--------------------------------------------|


e|10----------------------------------10|
B|---10----------------------------10---|
G|------10----------------------10------|
D|---------12----------------12---------| play that 4x
A|------------12----------12------------|
E|---------------13-10-13---------------|


e|12p9--------------------------9h12---|
B|-----10--------------------10--------|
G|--------9----------------9-----------|
D|----------11----------11-------------|play that 2x
A|-------------12-10-12----------------|
E|-------------------------------------|


e|15p10----------------------------10h15------|
B|------11----------------------11------------|
G|---------12----------------12---------------|
D|------------12----------12------------------|Play that 2x
A|---------------13-10-13---------------------|
E|--------------------------------------------|


e|10----------------------------------10|
B|---10----------------------------10---|
G|------10----------------------10------|
D|---------12----------------12---------| play that 4x
A|------------12----------12------------|
E|---------------13-10-13---------------|

Please Rate and Comment

************************************

| /   slide up
| \   slide down
| h   hammer-on
| p   pull-off
| ~   vibrato
| +   harmonic
| x   Mute note
| b   Bend
| pb  Pre-bend
| br  Bend release
| pbr Pre-bend release
| brb Bend release bend

************************************
Suggest correction
Give kudos to tab author, rate the tab!
1 2 3 4 5
comments
print report bad tab
guest
You may want to rate the tab now too:
select rating
Please do not post tabs as comments. Select "correction" instead!