Oops, an error
Loading. Please wait.

Sweep Scales Tab

85,088 views 81 this week
9 commentsread comments
1 2 3 4 5
x 28
add to favorites
launch autoscroll
font size
0
reset
how to read this tab
guitar tuner
Autoscroll
slow
fast
+/-
esc
set tempo
stop
Help us to improve Ultimate-Guitar.com Take our survey!
×
e|---------------12-15/19\15-12-----------------|
B|-------------12--------------12---------------|
G|-----------12------------------12-------------|
D|---------14----------------------14-----------|
A|-------14--------------------------14---------|
E|--12h15------------------------------15-------|

e|--14p10--------------10h14p10------10h14/17p14----------14--|
B|-------12----------12--------12--12-----------15------15----|
G|---------11------11------------11---------------16--16------|
D|-----------12--12---------------------------------16--------|
A|-------------14---------------------------------------------|
E|------------------------------------------------------------|

e|-------15h19p15----------15h19p15-----|
B|-----16--------16------16--------16---|
G|---17------------17--17------------17-|
D|-17----------------17-----------------|
A|--------------------------------------|
E|--------------------------------------|

e|-------------12h16p12----------------------12h17p12--------|
B|----------14----------14----------------14----------14-----|
G|-------13----------------13----------13----------------14--|
D|----14----------------------14----14-----------------------|
A|-16----------------------------16--------------------------|
E|-----------------------------------------------------------|

e|-9p5-------5-12p9---------9-17p12----------12-17-|
B|-----7---7--------10---10---------14----14-------|
G|-------6-------------11--------------14----------|
D|-------------------------------------------------|
A|-------------------------------------------------|
E|-------------------------------------------------|

e|---------------9h14p9-------------|
B|------------10--------10----------|
G|---------11--------------11-------|
D|------11--------------------11----|
A|-9h12--------------------------12-|
E|----------------------------------|

e|----------------12h17p12-------------|
B|-------------14----------14----------|
G|----------14----------------14-------|
D|-------14----------------------14----|
A|-12h16----------------------------16-|
E|-------------------------------------|

e|---------8-12h17p12------12h17----|
B|-------10----------13--13---------|
G|------9--------------14-----------|
D|----10----------------------------|
A|-12-------------------------------|
E|----------------------------------|

      T                   T
e|--20p17p12------12h17-20p17p12--|
B|----------13--13----------------|
G|------------14------------------|
D|--------------------------------|
A|--------------------------------|
E|--------------------------------|

e|-17-21-17----------17----------17-21-17----------17-|
B|---------19------19--19------19--------19------19---|
G|-----------18--18------18--18------------18--18-----|
D|-------------19----------19----------------19-------|
A|----------------------------------------------------|
E|----------------------------------------------------|

e|------------15h19p15--------------|
B|----------17--------17------------|
G|--------16------------16----------|
D|------17----------------17--------|
A|-15h19--------------------19------|
E|-----------------------------17---|

e|-15-----------------------------|
B|----17--------------------------|
G|-------16-----------------------|
D|----------14-13-----------------|
A|----------------14--------------|
E|-------------------12~----------|

e|-16----16----16---16---------------------16-|
B|---17----17----17---17-----------------17---|
G|-----18----18---------18-------------18-----|
D|------------------------18---------18-------|
A|--------------------------16-----16---------|
E|--------------------------------------------|

e|-10-17-15-13----------------------------8-10-|
B|------------17-15-13---------------10-11-----|
G|--------------------15-14-----10-12----------|
D|-------------------------12-14---------------|
A|---------------------------------------------|
E|---------------------------------------------|

e|-14-----17p14------14-17p14------14-17p14--17p14--------------------14-|
B|-------------15--15--------15--15--------15-----15----------------15---|
G|---------------14------------14-------------------14------------14-----|
D|----------------------------------------------------16--------16-------|
A|------------------------------------------------------17-14h17---------|
E|-----------------------------------------------------------------------|

e|-13p10------10-13p10------10-13p10--13p10--------------------10--|
B|------11--11--------11--11--------11-----11----------------11----|
G|--------10------------10-------------------10------------10------|
D|---------------------------------------------12--------12--------|
A|-----------------------------------------------13-10h13----------|
E|-----------------------------------------------------------------|

e|-14-17p14------14-17p14------14-17p14--17p14--------------------14-|
B|---------15--15--------15--15--------15-----15----------------15---|
G|-----------14------------14-------------------14------------14-----|
D|------------------------------------------------16--------16-------|
A|--------------------------------------------------17-14h17---------|
E|-------------------------------------------------------------------|

e|-13p10--------------------10-15p12--------------------12--|
B|------11----------------11--------13----------------13----|
G|--------10------------10------------12------------12------|
D|----------12--------12----------------14--------14--------|
A|------------13-10h13--------------------15-12h15----------|
E|----------------------------------------------------------|

e|-17p14------14-17p14--------------------------14-17p14--17p14---|
B|------15--15--------15----15----------------15--------15-----15-|
G|--------14------------14----14------------14--------------------|
D|------------------------16----16--------16----------------------|
A|--------------------------------17-14h17------------------------|
E|----------------------------------------------------------------|

e|-18p15-------15-18p15----------------------------------------------------|
B|------17--17---------17--17-13-17p13------13-18p13------13-17p13---------|
G|--------17-------------17-----------14--14--------14--14--------14--14\--|
D|--------------------------------------15------------15------------15-----|
A|-------------------------------------------------------------------------|
E|-------------------------------------------------------------------------|

e|---------16-21-16------------16-21-16-14---|
B|-----------------17---------------------14-|
G|-------18----------18------18--------------|
D|-----18------------------18----------------|
A|---19------------------19------------------|
E|-21------------------21--------------------|


************************************

| /  Slide up
| \  Slide down
| h  Hammer-on
| p  Pull-off
| ~  Vibrato

************************************
Suggest correction
comments
print report bad tab
9 comments total. Showing first comments.
+2 reply
metalheadblues 196 Mar 22, 2009 05:07 AM

nice!
ADD to favs

+2 reply
420ismybday 10 Apr 07, 2009 12:49 PM

thats look mad! nice.

+1 reply
Giantsinthesky 61 Apr 21, 2009 11:45 PM

sweet!
more 7 string sweeps please?

guest
You may want to rate the tab now too:
select rating
Wanna post a correction for this tab? Suggest correction