Oops, an error
Loading. Please wait.

31 - The Show Must Go On tab

169 views 6 this week
1 commentread comment
1 2 3 4 5
1 last vote to show rating
add to favorites
×
Save as Personal and add changes to this tab that will be seen only by you. Learn more ›
×
You can save this tab as Personal to edit and correct it or add notes. All changes will be seen only by you. Learn more »
launch autoscroll
font size
0
reset
how to read this tab
guitar tuner
edit
Autoscroll
slow
fast
+/-
esc
set tempo
stop
Open G tuning: D-G-D-G-B-D

(0:00)
D|-7-9-9-7---0-0---0---0---0--0---|-7-9-9-7---0-0-----------------|
B|-7-8-8-7---7-5-5-3---5---0--0-0-|-7-8-8-7---7-5---3-3-0-5--5-0--|
G|-7-7-7-7-0-0-0-0-0-0-0-0-0--0-0-|-7-7-7-7-0-0-0-0-3-3-0-5--5-0--|
D|-0-0-0-0-0-0-0-0-0-0-0-0-0----0-|-0-0-0-0-0-0-0-0-3-3-0-5--5-0--|
G|---0-0--------------------------|---0-0---------0-3-3-0-5--5-0--|
D|--------------------------------|-------------------------------|

(0:09)
D|-7-9-9-7---0-0---0---0---0------|-7-9-9-7---0-0-----------------|
B|-7-8-8-7---7-5-5-3---5-5-0--0-0-|-7-8-8-7---7-5---3-3-0-5--5-0--|
G|-7-7-7-7-0-0-0-0-0-0-0-0-0--0-0-|-7-7-7-7-0-0-0-0-3-3-0-5--5-0--|
D|-0-0-0-0-0-0-0-0-0-0-0-0-0--0-0-|-0-0-0-0-0-0-0-0-3-3-0-5--5-0--|
G|---0-0--------------------------|---0-0---------0-3-3-0-5--5-0--|
D|--------------------------------|-------------------------------|

(0:18)
D|-5-5-5---5-5-0--5--5-5-5-5-5-0-|-7-9-9-7---0-0---0-0-0-0-0--0-0-|-----5--------0----------------|
B|-5-5-7---7-8-0--5--5-7-7-7-5-0-|-7-8-8-7---7-5---3-3-5-5-0--0-0-|-5---7---7-8--0--5-5-7---7-5---|
G|-5-5-5---5-5-0--5--5-5-5-5-5-0-|-7-7-7-7-0-0-0-0-0-0-0-0-0--0-0-|-5-5-5-5-5-5--0--5-5-5-5-5-5---|
D|-5-5-5-5-5-5-0--5--5-5-5-5-5-0-|-0-0-0-0-0-0-0-0-0-0-0-0-0--0-0-|-5-5-5-5-5-5--0--5-5-5-5-5-5---|
G|-5-----5-----0--5--5---------0-|-0-0-0-------------------0------|-5------------0--5-------------|
D|-------------------------------|--------------------------------|-------------------------------|

(0:30)
D|-0-7-9-9-7---0-0-0-0-0-0-0-0-|-0-0-5-9-9-7---0-0---0-----0---------0-|-----0----------0------0---------|
B|-0-7-8-8-7---7-5-7-3-3-5-5-0-|-0-3-0-8-8-7---7-5---0-3-2-0-2-2-3-3-0-|-3-2-0-2---3-3--0--3-2-0-2---3-3-|
G|-0-7-7-7-7-0-0-0-0-0-0-0-0-0-|-0-0-0-7-7-7-0-0-0-0-0-3-2-0-2-2-3-3-0-|-3-2-0-2-2-3-3--0--3-2-0-2-2-3-3-|
D|-0-0-0-0-0---0-0-0-0-0-0-0-0-|-0-0-0-0-0-0---0-0-0-0-3-2-0-2---3-3-0-|-3-2-0-2-2-3-3--0--3-2-0-2-2-3-3-|
G|-0-------------------------0-|-----------------------3-------------0-|-3-2-0-2---3----0--3-2-0-2---3---|
D|-----------------------------|---------------------------------------|---------------------------------|

(0:44)
D|-0--0------------|-----------------|-----------------|-------------------|--------------|
B|-0--0-3/5-0--x-x-|-0--0-3/5-0--x-x-|-0--0-3/5-0--x-x-|-0-3\2-0-2-2-3-3-0-|-0-3/5-0--x-x-|
G|-0--0-3/5-0--x-x-|-0--0-3/5-0--x-x-|-0--0-3/5-0--x-x-|-0-3\2-0-2-2-3-3-0-|-0-3/5-0--x-x-|
D|-0--0-3/5-0--x-x-|-0--0-3/5-0--x-x-|-0--0-3/5-0--x-x-|-0-3\2-0-2-2-3-3-0-|-0-3/5-0--x-x-|
G|-0--0-3/5-0--x-x-|-0--0-3/5-0--x-x-|-0--0-3/5-0--x-x-|-0-3\2-0-2-2-3-3-0-|-0-3/5-0--x-x-|
D|-----------------|-----------------|-----------------|-------------------|--------------|

(0:55)
D|-----------------|-----------------|-----------------|-7-9-9-7---0-0-0-0-0-0-0-0--0-0--|
B|-0--0-3/5-0--x-x-|-0--0-3/5-0--x-x-|-0-3\2-0-2-2-3-0-|-7-8-8-7---7-5-3-3-3-5-5-0--0-0--|
G|-0--0-3/5-0--x-x-|-0--0-3/5-0--x-x-|-0-3\2-0-2-2-3-0-|-7-7-7-7-7-0-0-0-0-0-0-0-0--0-0--|
D|-0--0-3/5-0--x-x-|-0--0-3/5-0--x-x-|-0-3\2-0-2-2-3-0-|-0-0-0-0-0-0-0-0-0-0-0-0-0--0-0--|
G|-0--0-3/5-0--x-x-|-0--0-3/5-0--x-x-|-0-3\2-0-2-2-3-0-|---------------------------------|
D|-----------------|-----------------|-----------------|---------------------------------|

(1:06)
D|-7--9-9-7---0-0-0------0-------0-|-7-9-9-7-0-0-0---0---0-0-0-----|
B|-7--8-8-7---7-5-3-3--3-0--5--5-0-|-7-8-8-7-0-7-5---3---5-5-0-----|
G|-7--7-7-7-0-0-0-0-3--3-0--5--5-0-|-7-7-7-7---0-0---0-0-0---0-0---|
D|-0--0-0-0-0-0-0-0-3--3-0--5--5-0-|-0-0---0---0-0-0-0-0-0---0---0-|
G|------------------3--3-0--5--5-0-|---------------0-------------0-|
D|---------------------------------|-------------------------------|

(1:14)
D|-7--9-9-7---0-0-0--------------|-0--5---5---5-5-0-5---5---5-5-0-|-7-9-9-7-0-0-0-0-0-0-0-0-0-------|
B|-7--8-8-7---7-5-3-3--3-0--5--5-|-0--5---7---7-8-0-8---7---8-5-0-|-7-8-8-7-0-7-5-0-3-3-5-5-0--0----|
G|-7--7-7-7-0-0-0-0-3--3-0--5--5-|-0--5---5-5-5-5-0-5---5-5-5-5-0-|-7-7-7-7-0-0-0-0-0-0-0-0-0--0--0-|
D|-0--0-0-0-0-0-0-0-3--3-0--5--5-|-0--5-5-5-5-5-5-0-5-5-5-5-5-5-0-|-0-0-0-0-0-0-0-0-0-0-0-0-0-----0-|
G|------------------3--3-0--5--5-|-0--0-0---------0---0-----------|---------------------------------|
D|-------------------------------|--------------------------------|---------------------------------|

(1:28)
D|-5---5---5-5-0-5---5---5-5-0-|-7-9-9-7-0-0-0-0-0-0-0-0-0----|----7-9-9-7-0-0-0-0-0-|
B|-5---7---7-8-0-8---7---8-5-0-|-7-8-8-7-0-7-5-0-3-3-5-5-0--0-|----7-8-8-7-0-7-5-5-0-|
G|-5---5-5-5-5-0-5---5-5-5-5-0-|-7-7-7-7-0-0-0-0-0-0-0-0-0--0-|-0--7-7-7-7-0-0-0-0-0-|
D|-5-5-5-5-5-5-0-5-5-5-5-5-5-0-|-0-0-0-0-0-0-0-0-0-0-0-0-0----|-0--0-0-0-0-0-0-0-0-0-|
G|-0-0---------0---0-----------|------------------------------|----------------------|
D|-----------------------------|------------------------------|----------------------|

(1:39)
D|-----0---------0-|-----0---------0-|-----0----------|
B|-3-2-0-2-2-3-3-0-|-3-2-0-2-2-3-3-0-|-3-2-0-2-2-3-3--|
G|-3-2-0-2-2-3-3-0-|-3-2-0-2-2-3-3-0-|-3-2-0-2-2-3-3--|
D|-3-2-0-2-2-3-3-0-|-3-2-0-2-2-3-3-0-|-3-2-0-2-2-3-3--|
G|-3-2-0-2-2-3-3-0-|-3-2-0-2-2-3-3-0-|-3-2-0-2-2-3-3--|
D|-----------------|-----------------|----------------|

(1:45)
D|-0--0------------|-----------------|-----------------|-------------------|
B|-0--0-3/5-0--x-x-|-0--0-3/5-0--x-x-|-0--0-3/5-0--x-x-|-0-3\2-0-2-2-3-3-0-|
G|-0--0-3/5-0--x-x-|-0--0-3/5-0--x-x-|-0--0-3/5-0--x-x-|-0-3\2-0-2-2-3-3-0-|
D|-0--0-3/5-0--x-x-|-0--0-3/5-0--x-x-|-0--0-3/5-0--x-x-|-0-3\2-0-2-2-3-3-0-|
G|-0--0-3/5-0--x-x-|-0--0-3/5-0--x-x-|-0--0-3/5-0--x-x-|-0-3\2-0-2-2-3-3-0-|
D|-----------------|-----------------|-----------------|-------------------|

(1:56)
D|---------------|-----------------|-----------------|----5*--7*--12*---|
B|-0-3/5-0--x-x--|-0--0-3/5-0--x-x-|-0--0-3/5-0--x-x-|-0--5*--7*--12*---|
G|-0-3/5-0--x-x--|-0--0-3/5-0--x-x-|-0--0-3/5-0--x-x-|-0--5*--7*--12*---|
D|-0-3/5-0--x-x--|-0--0-3/5-0--x-x-|-0--0-3/5-0--x-x-|-0--5*--7*--12*---|
G|-0-3/5-0--x-x--|-0--0-3/5-0--x-x-|-0--0-3/5-0--x-x-|-0--5*--7*--12*---|
D|---------------|-----------------|-----------------|------------------|

(2:04)
D|-7-9-9-7-0-0-0---0---0---0------|-7-9-9-7-0-0-0---------0-------0--|
B|-7-8-8-7-0-7-5---3---5-5-0------|-7-8-8-7-0-7-5----3--3-0--5--5-0--|
G|-7-7-7-7---0-0-0-0-0-0-0-0--0---|-7-7-7-7---0-0-0--3--3-0--5--5-0--|
D|-0-0-------0-0-0-0-0-0---0----0-|-0-0-------0-0-0--3--3-0--5--5-0--|
G|-0-0--------------------------0-|-0-0-----------0--3--3-0--5--5-0--|
D|--------------------------------|----------------------------------|

(2:13)
D|-7-9-9-7-0-0-0---0---0---0------|-7-9-9-7-0-0-0---------0-------0-|
B|-7-8-8-7-0-7-5---3---5-5-0------|-7-8-8-7-0-7-5----3--3-0--5--5-0-|
G|-7-7-7-7---0-0-0-0-0-0-0-0--0---|-7-7-7-7---0-0-0--3--3-0--5--5-0-|
D|-0-0-------0-0-0-0-0-0---0----0-|-0-0-------0-0-0--3--3-0--5--5-0-|
G|-0-0--------------------------0-|-0-0-----------0--3--3-0--5--5-0-|
D|--------------------------------|---------------------------------|

(2:22)
D|-5---5---5-5-0-5---5---5-5-0-|-7-9-9-7-0-0-0-0-0-0-0-0-0--------|
B|-5---7---7-8-0-5---7---7-5-0-|-7-8-8-7-0-7-5-0-3-3-5-5-0--0-----|
G|-5---5-5-5-5-0-5---5-5-5-5-0-|-7-7-7-7-0-0-0-0-0-0-0-0-0--0--0--|
D|-5-5-5-5-5-5-0-5-5-5-5-5-5-0-|-0-0-0-0-0-0-0-0-0-0-0-0-0-----0--|
G|-0-0---------0---0-----------|----------------------------------|
D|-----------------------------|----------------------------------|

(2:31)
D|-5---5---5-5-0-5---5---5-5-0-|-7-9-9-7-0-0-0-0-0-0-0-0-0--------|
B|-5---7---7-8-0-5---7---7-5-0-|-7-8-8-7---7-5-0-3-3-5-5-0--0-----|
G|-5---5-5-5-5-0-5---5-5-5-5-0-|-7-7-7-7---0-0-0-0-0-0-0-0--0--0--|
D|-5-5-5-5-5-5-0-5-5-5-5-5-5-0-|-0-0-0-0---0-0-0-0-0-0-0-0-----0--|
G|-0-0---------0---0-----------|----------------------------------|
D|-----------------------------|----------------------------------|

(2:39)
D|-7-9-9-7-0-0-0-0----|-----0---------0-|-----0---------0-|-----0---------0---|
B|-7-8-8-7---7-5-0-0--|-3-2-0-2-2-3-3-0-|-3-2-0-2-2-3-3-0-|-3-2-0-2-2-3-3-0---|
G|-7-7-7-7---0-0-0-0--|-3-2-0-2-2-3-3-0-|-3-2-0-2-2-3-3-0-|-3-2-0-2-2-3-3-0---|
D|-0-0-0-0---0-0-0-0--|-3-2-0-2-2-3-3-0-|-3-2-0-2-2-3-3-0-|-3-2-0-2-2-3-3-0---|
G|-----------------0--|-3-2-0-2-2-3-3-0-|-3-2-0-2-2-3-3-0-|-3-2-0-2-2-3-3-0---|
D|--------------------|-----------------|-----------------|-------------------|

(2:49)
D|-0------------|-0--0-----0------|-0--0-----0------|-0-----0---------0-|-------0-------|
B|-0-3/5-0--x-x-|-0--0-3/5-0--x-x-|-0--0-3/5-0--x-x-|-0-3\2-0-2-2-3-3-0-|-0-3/5-0--x-x--|
G|-0-3/5-0--x-x-|-0--0-3/5-0--x-x-|-0--0-3/5-0--x-x-|-0-3\2-0-2-2-3-3-0-|-0-3/5-0--x-x--|
D|-0-3/5-0--x-x-|-0--0-3/5-0--x-x-|-0--0-3/5-0--x-x-|-0-3\2-0-2-2-3-3-0-|-0-3/5-0--x-x--|
G|-0-3/5-0--x-x-|-0--0-3/5-0--x-x-|-0--0-3/5-0--x-x-|-0-3\2-0-2-2-3-3-0-|-0-3/5-0--x-x--|
D|--------------|-----------------|-----------------|-------------------|---------------|

(2:59)
D|0--0-----0------|-0--0-----0------|-0-----0-------0--|
B|0--0-3/5-0--x-x-|-0--0-3/5-0--x-x-|-0-3\2-0-2-2-3-0--|
G|0--0-3/5-0--x-x-|-0--0-3/5-0--x-x-|-0-3\2-0-2-2-3-0--|
D|0--0-3/5-0--x-x-|-0--0-3/5-0--x-x-|-0-3\2-0-2-2-3-0--|
G|0--0-3/5-0--x-x-|-0--0-3/5-0--x-x-|-0-3\2-0-2-2-3-0--|
D|----------------|-----------------|------------------|

(3:06)
D|-7-9-9-7-0-0-0---0---0---0------|-7-9-9-7-0-0-0---------0-------0--|
B|-7-8-8-7-0-7-5---3---5-5-0------|-7-8-8-7-0-7-5----3--3-0--5--5-0--|
G|-7-7-7-7---0-0-0-0-0-0-0-0--0---|-7-7-7-7---0-0-0--3--3-0--5--5-0--|
D|-0-0-------0-0-0-0-0-0---0----0-|-0-0-------0-0-0--3--3-0--5--5-0--|
G|-0-0--------------------------0-|-0-0-----------0--3--3-0--5--5-0--|
D|--------------------------------|----------------------------------|

(3:14)
D|-7-9-9-7-0-0-0---0---0---0------|-7-9-9-7-0-0-0---------0-------0--|
B|-7-8-8-7-0-7-5---3---5-5-0------|-7-8-8-7-0-7-5----3--3-0--5--5-0--|
G|-7-7-7-7---0-0-0-0-0-0-0-0--0---|-7-7-7-7---0-0-0--3--3-0--5--5-0--|
D|-0-0-------0-0-0-0-0-0---0----0-|-0-0-------0-0-0--3--3-0--5--5-0--|
G|-0-0--------------------------0-|-0-0-----------0--3--3-0--5--5-0--|
D|--------------------------------|----------------------------------|

(3:23)
D|-5---5---5-5-0-5---5---5-5-0-|-7-9-9-7-0-0-0-0-0-0-0-0-0--------|
B|-5---7---7-8-0-5---7---7-5-0-|-7-8-8-7---7-5-0-3-3-5-5-0--0-----|
G|-5---5-5-5-5-0-5---5-5-5-5-0-|-7-7-7-7---0-0-0-0-0-0-0-0--0--0--|
D|-5-5-5-5-5-5-0-5-5-5-5-5-5-0-|-0-0-0-0---0-0-0-0-0-0-0-0-----0--|
G|-0-0---------0---0-----------|----------------------------------|
D|-----------------------------|----------------------------------|

(3:32)
D|-5---5---5-5-0-5---5---5-5-0-|-7-9-9-7-0-0-0-0-0-0-0-0-0--------|
B|-5---7---7-8-0-5---7---7-5-0-|-7-8-8-7---7-5-0-3-3-5-5-0--0-----|
G|-5---5-5-5-5-0-5---5-5-5-5-0-|-7-7-7-7---0-0-0-0-0-0-0-0--0--0--|
D|-5-5-5-5-5-5-0-5-5-5-5-5-5-0-|-0-0-0-0---0-0-0-0-0-0-0-0-----0--|
G|-0-0---------0---0-----------|----------------------------------|
D|-----------------------------|----------------------------------|

(3:40)
D|-7-9-9-7-0-0-0-0---|-----0---------0-|-----0---------0-|-----0---------0--|
B|-7-8-8-7---7-5-0-0-|-3-2-0-2-2-3-3-0-|-3-2-0-2-2-3-3-0-|-3-2-0-2-2-3-3-0--|
G|-7-7-7-7---0-0-0-0-|-3-2-0-2-2-3-3-0-|-3-2-0-2-2-3-3-0-|-3-2-0-2-2-3-3-0--|
D|-0-0-0-0---0-0-0-0-|-3-2-0-2-2-3-3-0-|-3-2-0-2-2-3-3-0-|-3-2-0-2-2-3-3-0--|
G|-----------------0-|-3-2-0-2-2-3-3-0-|-3-2-0-2-2-3-3-0-|-3-2-0-2-2-3-3-0--|
D|-------------------|-----------------|-----------------|------------------|

(3:50)
D|-0-----0------|-0--0-----0------|-0--0-----0------|-0-----0---------0-|-0-----0-------|
B|-0-3/5-0--x-x-|-0--0-3/5-0--x-x-|-0--0-3/5-0--x-x-|-0-3\2-0-2-2-3-3-0-|-0-3/5-0--x-x--|
G|-0-3/5-0--x-x-|-0--0-3/5-0--x-x-|-0--0-3/5-0--x-x-|-0-3\2-0-2-2-3-3-0-|-0-3/5-0--x-x--|
D|-0-3/5-0--x-x-|-0--0-3/5-0--x-x-|-0--0-3/5-0--x-x-|-0-3\2-0-2-2-3-3-0-|-0-3/5-0--x-x--|
G|-0-3/5-0--x-x-|-0--0-3/5-0--x-x-|-0--0-3/5-0--x-x-|-0-3\2-0-2-2-3-3-0-|-0-3/5-0--x-x--|
D|--------------|-----------------|-----------------|-------------------|---------------|

(4:00)
D|-0--0-----0------|-0--0-----0------|-0--5*--7*--12*--|
B|-0--0-3/5-0--x-x-|-0--0-3/5-0--x-x-|-0--5*--7*--12*--|
G|-0--0-3/5-0--x-x-|-0--0-3/5-0--x-x-|-0--5*--7*--12*--|
D|-0--0-3/5-0--x-x-|-0--0-3/5-0--x-x-|-0--5*--7*--12*--|
G|-0--0-3/5-0--x-x-|-0--0-3/5-0--x-x-|-0--5*--7*--12*--|
D|-----------------|-----------------|-----------------|


************************************

| x  Dead note
| /  Slide up
| \  Slide down
| *  Natural harmonic

************************************

            
            
Suggest correction
Creating personal tab
Creating personal tab
You can edit any tab online and save it as your Personal.

You can edit, replace or remove any tab part or add personal notes – all changes will be seen only by you.

Personal tabs can be accessed anytime from any device, even offline.
Learn more »
Give kudos to tab author, rate the tab!
1 2 3 4 5
comments
print report bad tab
1 comment total.
0 reply
greek_arrow 10 Aug 11, 2017 11:17 AM

awesome!!

guest
You may want to rate the tab now too:
select rating
Wanna post a correction for this tab? Suggest correction