Oops, an error
Loading. Please wait.

A Knights Tale - Pieces Tab

2,159 views 1 this week
no commentswrite comment
1 2 3 4 5
2 more votes to show rating
add to favorites
launch autoscroll
font size
0
reset
how to read this tab
guitar tuner
Autoscroll
slow
fast
+/-
esc
set tempo
stop
Help us to improve Ultimate-Guitar.com Take our survey!
×
Author
Verse:

   Em                             A5               D   
e|----------------------------------------------------------------------------|
B|--------5p0-0-3-0--0-3p0-0-0-------------------------3----3-----------------|
G|--------------------------------2-----2---5\2--2----------------------------|
D|--2--2--------------------------2---2-------------0-----0----0--4h5p4--0-0--|
A|--2-----------------------------0-------------------------------------------|
E|--0-------------------------------------------------------------------------|


e|-----------------------------------------------------------------------------|
B|----------------------------------------------------3-----3------------------|
G|-------3p0-0-3-0-3p0-0-0--------2----2---5\2--2------------------------------|
D|--2-----------------------------2--2-------------0-----0-----0--4h5p4--0-0---|
A|--2-----------------------------0--------------------------------------------|
E|--0--------------------------------------------------------------------------|


Chorus:

Strum these chords accordingly 

     C      G      D
e|---0------3------2----------------------------|
B|---1------3------3----------------------------|
G|---0------4------2----------------------------|
D|---2------5------0----------------------------|
A|---3------5-----------------------------------|
E|----------3-----------------------------------|


         C              G           D                 C 
 how you know   and the sun shines  wings around you smile

     G         D              C       G            D                 C
 And I'm here laughing like a child   There's just one place left to start
     


e|---3------5--7-8-------------3-----------7-------------------------------------|
B|---4-------------------------3-----------7-------------------------------------|
G|---5-------------------------4-----------8---------0---------------------------|
D|---5-------------------------5-----------9---------2---------------------------|
A|---3-------------------------5-----------9---------2---------------------------|
E|-----------------------------3(x10)------7(x10)----0---------------------------|


Bridge:

    Em     A5     D
e|---0------------2----------------------------------|
B|---0------------3----------------------------------|
G|---0------------2----------------------------------|
D|---2------7-----4----------------------------------|
A|---2------7-----5----------------------------------|
E|---0------5----------------------------------------|


Em                         A5                   D
I can't stand to lose you  To break we'll never get through

      Em                    Am        D                C
And I can't all love you If use all pieces of my heart

Suggest correction
Give kudos to tab author, rate the tab!
1 2 3 4 5
comments
print report bad tab
guest
You may want to rate the tab now too:
select rating
Wanna post a correction for this tab? Suggest correction