Oops, an error
Loading. Please wait.

A Walk To Remember - The Kiss Tab

1,813 views 1 this week
2 commentsread comments
1 2 3 4 5
2 more votes to show rating
add to favorites
launch autoscroll
font size
0
reset
how to read this tab
guitar tuner
Autoscroll
slow
fast
+/-
esc
set tempo
stop
Help us to improve Ultimate-Guitar.com Take our survey!
×
Author
This is just one of the guitar parts. There is a second guitar in the background playing 
the low notes. Playing with the track helps.

h= hammer on
p= pull off
/= slide

played softly

------10-9------------------10-9------------------10-7-----------------------|
--3----------10---5h7--3-----------10--5h7---3-----------7/1--0---8/5-5------|
-----------------------------------------------------------------------------|
-----------------------------------------------------------------------------|
-----------------------------------------------------------------------------|
-----------------------------------------------------------------------------|

repeat
Suggest correction
Give kudos to tab author, rate the tab!
1 2 3 4 5
comments
print report bad tab
2 comments total.
0 reply
RSParker86 86 Nov 05, 2012 04:31 PM

It is written correctly just on the wrong strings. This was actually supposed to be written on the E and B Strings.

0 reply
RSParker86 86 May 26, 2013 02:30 AM

e-----10-9----------------10-9---------------10-7---------------------
B--3--------10--5h7----3--------10--5h7----3-------7/1-0---8/5-5------
G---------------------------------------------------------------------
D---------------------------------------------------------------------
A---------------------------------------------------------------------
E---------------------------------------------------------------------

guest
You may want to rate the tab now too:
select rating
Wanna post a correction for this tab? Suggest correction