Oops, an error
Loading. Please wait.

A Walk To Remember - The Kiss Tab

1,540 views 6 this week
2 commentsread comments
1 2 3 4 5
excellent!
x 1
add to favorites
launch autoscroll
font size
0
reset
how to read this tab
guitar tuner
Tab Pro tools
  • play this tab
  • loop segment
  • change instrument
  • show fretboard
  • metronome
Autoscroll
slow
fast
+/-
esc
set tempo
stop
Contributor
This is just one of the guitar parts. There is a second guitar in the background playing 
the low notes. Playing with the track helps.

h= hammer on
p= pull off
/= slide

played softly

----------------------------------------------------------------|
----------------------------------------------------------------|
----------------------------------------------------------------|
----------------------------------------------------------------|
--3--------10--5h7----3--------10--5h7----3-------7/1-0---8/5-5-|
-----10-9----------------10-9----------------10-7---------------|

repeat
comments
We did not receive enough feedback on this tab! Please rate:
print report bad tab
1 2 3 4 5
2 comments total.
0 reply
RSParker86 wrote on November 5 2012, 04:31 pm

It is written correctly just on the wrong strings. This was actually supposed to be written on the E and B Strings.

0 reply
RSParker86 wrote on May 26 2013, 02:30 am

e-----10-9----------------10-9---------------10-7---------------------
B--3--------10--5h7----3--------10--5h7----3-------7/1-0---8/5-5------
G---------------------------------------------------------------------
D---------------------------------------------------------------------
A---------------------------------------------------------------------
E---------------------------------------------------------------------

I want to post or [tab]
guest
You may want to rate the tab now too:
select rating
Please do not post tabs as comments. Select "correction" instead!