Oops, an error
Loading. Please wait.

Across The Universe - Ive Just Seen A Face Bass Tab

9,626 views 1 this week
no commentswrite comment
1 2 3 4 5
please rate
add to favorites
launch autoscroll
font size
0
reset
guitar tuner
Autoscroll
slow
fast
+/-
esc
set tempo
stop
Help us to improve Ultimate-Guitar.com Take our survey!
×
Author
Difficulty
novice
-----------------------------------------------------------------------------
	Ive Just Seen A Face - Jim Sturgess (from Across the Universe)
-----------------------------------------------------------------------------

Tabbed By : Nick
e-mail: benderonthelot@yahoo.com

Tuning: Standard

This is a cover of the Beatles song, from the movie Across the Universe. It's a very 
done cover, and this is my second tab.

Intro:
G|--------------------------------|
D|--------------------------------|
A|-10------10------10------10-----|
E|-----10------10------10------10-|

Verse:
G|-------------------------------|------------------------|
D|-------------------------------|------------------------|
A|-10------10------10------10--9-|-7-----7-----7-----7--5-|
E|-----10------10------10--------|----7-----7-----7-------|

G|--------------------------|
D|--------------------------|
A|-3-----3-----5--5--10-----|
E|----3-----3------------10-|

Chorus:
G|------------------------|------------------------|
D|------------------------|------------------------|
A|-5--5--5--5--3--3--3--3-|-------3--3-------------|
E|------------------------|-3--3--------3--3--3--3-|

Last Chorus is played:
G|------------------------|------------------------|
D|------------------------|------------------------|
A|-5--5--5--5--3--3--3--3-|-------3--3-----5-------|
E|------------------------|-3--3--------3-----3~~~~|

Song order:
Intro
Verse [x2]
Chorus
Verse
Chorus
Solo (Play the Verse [x2]
Chorus [x2]
Last Chorus

=]
=============================================================================
Suggest correction
Give kudos to tab author, rate the tab!
1 2 3 4 5
comments
print report bad tab
guest
You may want to rate the tab now too:
select rating
Wanna post a correction for this tab? Suggest correction