Oops, an error
Loading. Please wait.

Age Of Empires Theme Tab

version 2
version 2

Whole song

1,765 views 3 this week
3 commentsread comments
1 2 3 4 5
accurate
x 3
add to favorites
launch autoscroll
font size
0
reset
how to read this tab
guitar tuner
Autoscroll
slow
fast
+/-
esc
set tempo
stop
Help us to improve Ultimate-Guitar.com Take our survey!
×
Author
Simple tab from the opening cinematic of Age of Empires.


E-------------------------------
B-3-8-11-10-8-10----------------
G-------------------------------
D-------------------------------
A-------------------------------
E-------------------------------

E-------------------------------
B-3-8-11-10-8-13----------------
G-------------------------------
D-------------------------------
A-------------------------------
E-------------------------------

E-------------------------------
B-3-8-11-10-8-10-10-11-10-8-4-3-
G-------------------------------
D-------------------------------
A-------------------------------
E-------------------------------

Michael Zhu
valorthegreat@idx.com.au
Suggest correction
Give kudos to tab author, rate the tab!
1 2 3 4 5
comments
print report bad tab
3 comments total.
0 reply
Harregarre 10 wrote on August 10 2008, 10:47 am

E-------------------------------
B-3-8-11-10-8-10-10-11-10-6-8---
G-------------------------------
D-------------------------------
A-------------------------------
E-------------------------------

This part is in it as well...if I remember correctly. And then it goes into a faster bit I can't remember. :P

0 reply
Harregarre 10 wrote on August 10 2008, 10:48 am

E-------------------------------
B-3-8-11-10-8-10-10-11-10-6-8---
G-------------------------------
D-------------------------------
A-------------------------------
E-------------------------------

This part is in it as well...if I remember correctly. And then it goes into a faster bit I can't remember. :P

0 reply
Harregarre 10 wrote on August 10 2008, 10:48 am

Sorry for the double post.

guest
You may want to rate the tab now too:
select rating
Wanna post a correction for this tab? Suggest correction