Oops, an error
Loading. Please wait.

All In The Family Theme Tab

version 1
version 1

Whole song

4,166 views 12 this week
5 commentsread comments
1 2 3 4 5
please rate
add to favorites
launch autoscroll
font size
0
reset
how to read this tab
guitar tuner
Autoscroll
slow
fast
+/-
esc
set tempo
stop
Help us to improve Ultimate-Guitar.com Take our survey!
×
e----------------------------------------------------
B----------------------------------------------------
G---------------------------------------------------0
D-0-3-5-7-7-3-3--3-5-7-9-9-5-5--9-7-5-3-3-0-0--9-7-5-
A----------------------------------------------------
E----------------------------------------------------

this is about 99% right
to get the beat of it watch nick at night or tvland or even download it
its one of the best shows ever
this tab is the vocals of the theme
i'll be back later with the cords
Suggest correction
Give kudos to tab author, rate the tab!
1 2 3 4 5
comments
print report bad tab
5 comments total. Showing first comments.
0 reply
jimflint1 31 wrote on May 17 2007, 12:11 am

Way off.

0 reply
0Billie0Joe0 20 wrote on September 21 2007, 04:39 pm

kinda sounds right

0 reply
robmedecine 31 wrote on November 19 2013, 04:32 pm

e|------------------------0~------0-------------------------|
B|---------0~----------0-3---0-0~----3-0---------3~-0-------|
G|-----0-2---0-0~--0-2------------------2-0----------2-0~---|
D|-0-2-------------------------------------2-0~-------------|
A|----------------------------------------------------------|
E|----------------------------------------------------------|

guest
You may want to rate the tab now too:
select rating
Wanna post a correction for this tab? Suggest correction