Oops, an error
Loading. Please wait.

Alton Towers Theme Tab

version 1
version 1

Whole song

Interactive

1,465 views 3 this week
3 commentsread comments
1 2 3 4 5
not so good
x 1
add to favorites
launch autoscroll
font size
0
reset
how to read this tab
guitar tuner
Tab Pro tools
  • play this tab
  • loop segment
  • change instrument
  • show fretboard
  • metronome
Autoscroll
slow
fast
+/-
esc
set tempo
stop
Contributor
Difficulty
novice
e------------------------------|
B------------------------------|
G------------------------------|
D------------------------------|
A-------0-2---2---2---0---0----|
E-0-2-3-----3---1---1---1------|

e------------------------------|
B------------------------------|
G------------------------------|
D---------------2-0-------0----|
A-------0-2---2-----2---2------|
E-0-2-3-----3---------3--------|

e-----------------------------|
B-----------------------------|
G-----------------------------|
D-------0-2---2---2---0---0---|
A-0-2-3-----3---1---1---1-----|
E-----------------------------|

e-----------------------------|
B-----------------------------|
G---------------2-0-------0---|
D-------0-2---2-----2---2-----|
A-0-2-3-----3---------3-------|
E-----------------------------|

And repeat :]
If there are any problems, email me at BeneathTheBlue_72@hotmail.com.
comments
We did not receive enough feedback on this tab! Please rate:
print report bad tab
1 2 3 4 5
3 comments total.
0 reply
Mistekah wrote on March 26 2010, 08:53 am


e------------------------------|
B------------------------------|
G------------------------------|
D------------------------------|
A-------0-2---2-1---1--0---0---|
E-0-2-3-----3-----2------1-----|

e-----------------------------|
B-----------------------------|
G-----------------------------|
D-------0-2---2-1---1--0---0--|
A-0-2-3-----3-----2------1----|
E-----------------------------|

0 reply
Andygriffiths88 wrote on July 23 2014, 06:56 am

Lack of accuracy.

0 reply
Andygriffiths88 wrote on July 23 2014, 06:57 am

Play the second half

I want to post or [tab]
guest
You may want to rate the tab now too:
select rating
Please do not post tabs as comments. Select "correction" instead!