Oops, an error
Loading. Please wait.

American Horror Story - Ahs Theme Song Bass

634 views 33 this week
no commentswrite comment
1 2 3 4 5
1 last vote to show rating
add to favorites
launch autoscroll
font size
0
reset
guitar tuner
×
Best way to learn
"American Horror Story - Ahs Theme Song"
Autoscroll
slow
fast
+/-
esc
set tempo
stop
Author
Difficulty
About this tab version
Im not sure this is the original bass line,I wrote this by ear. hope you enjoy playing it anyway. Was this info helpful? Yes No
G|---------------------------------------|
D|---------------------------------------|
A|-------5-2------5-2-----5-9--5-9--5-2--|
E|---2--------2--------2-----------------|

  and again
G|---------------------------------------|
D|---------------------------------------|
A|-------5-2------5-2-----5-9--5-9--5-2--|
E|---2--------2--------2-----------------|
Suggest correction
Give kudos to tab author, rate the tab!
1 2 3 4 5
comments
print report bad tab
guest
You may want to rate the tab now too:
select rating
Wanna post a correction for this tab? Suggest correction