Oops, an error
Loading. Please wait.

Anastasia - Once Upon A December tab

version 1
version 1

Whole song

  • This is for the Youtube Cover Version - https://ww... Show more
  • For Youtube Cover Version (Rhythm Guitar 1) - http... Show more
211 views 6 this week
no commentswrite comment
1 2 3 4 5
2 more votes to show rating
add to favorites
×
Save as Personal and add changes to this tab that will be seen only by you. Learn more ›
×
You can save this tab as Personal to edit and correct it or add notes. All changes will be seen only by you. Learn more »
launch autoscroll
font size
0
reset
how to read this tab
guitar tuner
edit
Autoscroll
slow
fast
+/-
esc
set tempo
stop
For Youtube Cover Version - https://www.youtube.com/watch?v=oucXRdLYepI

[Verse 1]
e|------------------|-----------------|---------------------------|
B|---7----8----7----|---10----8-------|--8-------7--------------7-|
G|------------------|--------------9--|------9-------7-------9----|
D|------------------|-----------------|-------------------9-------|
A|------------------|-----------------|---------------------------|
E|------------------|-----------------|---------------------------|

     Dan- cing bears   Pain -ted wings Things I All-most re-mem-ber

e|------------------|---------7-------|-----------------------------|
B|---7----8----7----|----7------------|--8-------7------------------|
G|------------------|--------------9--|------9-------7------6-7-6---|
D|------------------|-----------------|------------------9--------9-|
A|------------------|-----------------|-----------------------------|
E|------------------|-----------------|-----------------------------|

     And   A   song     Some-one sings   Once U -pon A  De-ce-em-ber

e|--------------------------------|------------------------------------|
B|--10--8---10---8----8---7----7--|-8-7-------7------10---8--8--7----7-|
G|--------------------------------|------------------------------------|
D|--------------------------------|------------------------------------|
A|--------------------------------|------------------------------------|
E|--------------------------------|------------------------------------|

   Some-one Holds me safe and warm  Hor-ses Prance through a sil-ver storm

e|--------------------------------|------------------------|
B|--10--8----10--8----8----7---7--|--------------------7---|
G|--------------------------------|--7--6----7--6---7------|
D|--------------------------------|------------------------|
A|--------------------------------|------------------------|
E|--------------------------------|------------------------|

     Fig-ures dan-cing grace-fu-lly   A-cross my mem-or-y

[Verse 2]
(Choir)
e|------------------|-----------------|---------------------------|
B|---8----9----8----|---11----9-------|--9-------8--------------8-|
G|------------------|------------10---|-----10-------8------10----|
D|------------------|-----------------|------------------10-------|
A|------------------|-----------------|---------------------------|
E|------------------|-----------------|---------------------------|

e|------------------|---------8-------|-----------------------------|
B|---8----9----8----|----8------------|--9-------8--------------8---|
G|------------------|-------------10--|------10-------8------7------|
D|------------------|-----------------|-----------------10----------|
A|------------------|-----------------|-----------------------------|
E|------------------|-----------------|-----------------------------|

e|------------------|---------8-------|-----------------------------|
B|---8----9----8----|----8------------|--9-------8------------------|
G|------------------|-------------10--|-----10-------8------7-8-7---|
D|------------------|-----------------|----------------10--------10-|
A|------------------|-----------------|-----------------------------|
E|------------------|-----------------|-----------------------------|

e|--------------------------------|------------------------------------|
B|--11--9---11---9---9---8----8---|-9-8------8------11----9--9--8----8-|
G|--------------------------------|------------------------------------|
D|--------------------------------|------------------------------------|
A|--------------------------------|------------------------------------|
E|--------------------------------|------------------------------------|

   Some-one Holds me safe and warm  Hor-ses Prance through a sil-ver storm

e|--------------------------------|------------------------|
B|--11--9----11--9----9----8---8--|--------------------8---|
G|--------------------------------|--8--7----8--7---8------|
D|--------------------------------|------------------------|
A|--------------------------------|------------------------|
E|--------------------------------|------------------------|

     Fig-ures dan-cing grace-fu-lly   A-cross my mem-or-y

[Verse 3]
(Final)
e|------------------|-----------------|---------------------------|
B|---9----10----9---|---12---10-------|--10------9--------------9-|
G|------------------|------------11---|-----11-------9------11----|
D|------------------|-----------------|------------------11-------|
A|------------------|-----------------|---------------------------|
E|------------------|-----------------|---------------------------|

     Far   a  -way      long  a –go     glowing dim  as  an em-ber

e|------------------|---------9-------|---------------------------------|
B|---9----10---9----|----9------------|--10---------9---------------9---|
G|------------------|-------------11--|--------11--------9------8-9-----|
D|------------------|-----------------|----------------------11---------|
A|------------------|-----------------|---------------------------------|
E|------------------|-----------------|---------------------------------|

    Things my heart      used to know   things it yearns to remember

e|-----------------------9---|--------------------------8---9---|
B|--10---12-10---10-9--------|---10-------9---------------------|
G|---------------------------|-------11-------9-----8-----------|
D|---------------------------|------------------11--------------|
A|---------------------------|----------------------------------|
E|---------------------------|----------------------------------|

      and a song someone sings   once  u  -pon a dec-em-em-ber
Suggest correction
Creating personal tab
Creating personal tab
You can edit any tab online and save it as your Personal.

You can edit, replace or remove any tab part or add personal notes – all changes will be seen only by you.

Personal tabs can be accessed anytime from any device, even offline.
Learn more »
Give kudos to tab author, rate the tab!
1 2 3 4 5
comments
print report bad tab
guest
You may want to rate the tab now too:
select rating
Wanna post a correction for this tab? Suggest correction