Oops, an error
Loading. Please wait.

Are You Afraid Of The Dark Theme Tab

2,837 views 3 this week
no commentswrite comment
1 2 3 4 5
please rate
add to favorites
launch autoscroll
font size
0
reset
how to read this tab
guitar tuner
Autoscroll
slow
fast
+/-
esc
set tempo
stop
Help us to improve Ultimate-Guitar.com Take our survey!
×
Author
Difficulty
Tuning
novice
C G C F A D
here's the link to my video playing it.. so itll serve as a guide
http://www.youtube.com/watch?v=lg13MdeWx-U

drop c tuning

^ -bend string
~ -let it ring
/ -slide down
x -dead note

|-----------------------------------------|
|-----------------------------------------|
|-----------------------------------------|
|---------------------4---6---------------|
|-----4-5-4-5-x-4-5-4---4-----------------|
|-----------------------------------------|


|-----------------------------------------|
|-----19^(21)---------------21~-----------|
|--------------18-19-18-17--------13/-----|
|-----------------------------------------|
|-----------------------------------------|
|-----------------------------------------|


|-----------------------------------------|
|-----19^(21)-----------------------------|
|--------------18-19-18-17~~--------------|
|-----------------------------------------|
|-----------------------------------------|
|-----------------------------------------|


|----------------------------------------|
|----------------------------------------|
|----19^(21)-18-21-21^(22)-19------------|
|----------------------------------------|
|----------------------------------------|
|----------------------------------------|


|----------------------------------------------------------------------|
|----------------------------------------------------------14~---------|
|-------7-----------4------------------------------13~-14~-----11~~/---|
|-----7---6~------3----------------------------------------------------|
|---------------------4~--4-4-4-4-4-4-4-4-4-4-4-4----------------------|
|----------------------------------------------------------------------|

this about it!!!
have fun!!!!!
this is dedicated to my once favorite show from nick "Are You Afraid Of The Dark?" i 
they bring it back someday lol
Suggest correction
Give kudos to tab author, rate the tab!
1 2 3 4 5
comments
print report bad tab
guest
You may want to rate the tab now too:
select rating
Wanna post a correction for this tab? Suggest correction