Oops, an error
Loading. Please wait.

Back To The Future Theme Tab

version 2
version 2

Whole song

2,890 views 96 this week
no commentswrite comment
1 2 3 4 5
1 last vote to show rating
add to favorites
launch autoscroll
font size
0
reset
how to read this tab
guitar tuner
Autoscroll
slow
fast
+/-
esc
set tempo
stop
Help us to improve Ultimate-Guitar.com Take our survey!
×
Author
Difficulty
Couldn't find anything I thought sounded right to me, so I decided to find a 'short' version of the theme and
tab it myself, enjoy.


e-|---------------------------------------------|
B-|----------13--11--10-----10------------------|
G-|-----12---------------12----12-10-12---------|
D-|-10------------------------------------------|
A-|---------------------------------------------|
E-|---------------------------------------------|

e-|---------------------------------------------|
B-|---------------------------------------------|
G-|--------------------------------8-8-7-5-7-8--|
D-|--6---5-6-8-6-----5---6-8-6---6--------------|
A-|----4---------8-4-----------6----------------|
E-|---------------------------------------------|

e-|----------------------------------------------------10--10------------10--|
B-|-----------------10---------------------10-----------------14--12--14-----|
G-|--12-----11--12------12---------11---12----12----12-----------------------|
D-|------10-----------------14--10---------------12--------------------------|
A-|--------------------------------------------------------------------------|
E-|--------------------------------------------------------------------------|

e-|--13-12-10-12-10-8-10------------------------|
B-|---------------------------9-7-6-4-6-4-2-4---|
G-|---------------------------------------------|
D-|---------------------------------------------|
A-|---------------------------------------------|
E-|---------------------------------------------|
Suggest correction
Give kudos to tab author, rate the tab!
1 2 3 4 5
comments
print report bad tab
guest
You may want to rate the tab now too:
select rating
Wanna post a correction for this tab? Suggest correction