Oops, an error
Loading. Please wait.

Beverly Hills Cop Theme Bass Tab

version 1
version 1

Whole song

Interactive

14,212 views 36 this week
2 commentsread comments
1 2 3 4 5
accurate
x 11
add to favorites
launch autoscroll
font size
0
reset
guitar tuner
Autoscroll
slow
fast
+/-
esc
set tempo
stop
Help us to improve Ultimate-Guitar.com Take our survey!
×
Beverly Hills Cop Theme |
------------------------
 
TAB: by Big M
e-mail: Big_Mx@gmx.de
 
G|-------------------------6-------7-6------6-11-------------|
D|-----7-------9-----------------------7-----------------6---|
A|-9-------9-9---9-7---9-------9-9-------9-------9-7-7-----9-|
E|-----------------------------------------------------9-----|
Suggest correction
comments
print report bad tab
2 comments total.
-1 reply
WeeGit 50 wrote on October 7 2006, 06:23 am

Good tab. But you change all the 6's to 11's on the string above it, it become ten times easier to play. Keep up the good work.

0 reply
chauartiartic 30 wrote on May 23 2015, 05:32 am

little correction: at the end 6-11-------------|
-------------7---| <----
-----9-7-7-----9-|
-----------9-----|

guest
You may want to rate the tab now too:
select rating
Please do not post tabs as comments. Select "correction" instead!