Oops, an error
Loading. Please wait.

Beverly Hills Cop Theme Tab

version 1
version 1

Whole song

Interactive

26,295 views 24 this week
6 commentsread comments
1 2 3 4 5
x 14
add to favorites
launch autoscroll
font size
0
reset
how to read this tab
guitar tuner
×
Best way to learn
"Beverly Hills Cop Theme"
Autoscroll
slow
fast
+/-
esc
set tempo
stop
This is my first I think it sounds tike the intro email me
and tell me what you think (prdoring@msn.com)

e|0-3-0-0-5--0------0-7-0-0-8-0--------0-3-5-0-------3-0----|
B|--------------3---------------3--------------3-0-3--------|
G|----------------------------------------------------------|
D|----------------------------------------------------------|
A|----------------------------------------------------------|
E|----------------------------------------------------------|
Suggest correction
comments
print report bad tab
6 comments total. Showing first comments.
0 reply
Cheetahatnight 10 Jan 07, 2003 07:00 PM

this song is tabed wrong, the proper way to play it is as follows:
e-0-3-0-0-5-0--0-7-0-0-8-7-3-0-7-12-0-----3-0
b------------3----------------------3-0-3----
g--------------------------------------------
d--------------------------------------------
a--------------------------------------------
E--------------------------------------------

0 reply
theryan 10 Feb 28, 2003 07:00 PM

[e]0-3-0-0-5--0------0-7-0-0-8-7-5-------0-3-5-0-------3-0
[b]--------------3------------------3-0-3

0 reply
LoRdT 10 Mar 24, 2003 07:00 PM

it's 0 3 0 0 5 0 0 7 0 0 8 7 3
3

guest
You may want to rate the tab now too:
select rating
Wanna post a correction for this tab? Suggest correction