Oops, an error
Loading. Please wait.

Beverly Hills Cop Theme tab

version 4
version 4

Whole song

Interactive

47,492 views 30 this week
8 commentsread comments
1 2 3 4 5
x 36
add to favorites
×
Save as Personal and add changes to this tab that will be seen only by you. Learn more ›
×
You can save this tab as Personal to edit and correct it or add notes. All changes will be seen only by you. Learn more »
launch autoscroll
font size
0
reset
how to read this tab
guitar tuner
edit
Autoscroll
slow
fast
+/-
esc
set tempo
stop
Author
Unregistered
Standard tuning

[Main riff]
e|--0-3-0-0-5-0---0-7-0-0-8-7-3-0-7-12-0------3-0|
B|--------------3------------------------3p0h3---|
G|-----------------------------------------------|
D|-----------------------------------------------|
A|-----------------------------------------------|
E|-----------------------------------------------|


************************************

| h  Hammer-on
| p  Pull-off

************************************
Suggest correction
Creating personal tab
Creating personal tab
You can edit any tab online and save it as your Personal.

You can edit, replace or remove any tab part or add personal notes – all changes will be seen only by you.

Personal tabs can be accessed anytime from any device, even offline.
Learn more »
comments
print report bad tab
8 comments total. Showing first comments.
+6 reply
$corpia_99 30 Dec 20, 2004 07:00 PM

Great tab but i think there is one thing wrong with it....

e--0-3-0-0-5-0---0-7-0-0-8-7-3-0-7-12-0------3-0
B--------------3------------------------3-3-0---
G-----------------------------------------------
D-----------------------------------------------
A-----------------------------------------------
E-----------------------------------------------

I think thats correct, could be wrong but thats how it sounds.

+3 reply
talmby! 10 May 28, 2006 09:23 AM

i think $corpia has the better version

+5 reply
Yellowcarded 92 Aug 20, 2006 11:36 AM

Capo on 1!
That's the original setting.

guest
Wanna post a correction for this tab? Suggest correction