Oops, an error
Loading. Please wait.

Bonanza Theme tab

version 1
version 1

Whole song

Interactive

46,277 views 33 this week
2 commentsread comments
1 2 3 4 5
x 10
add to favorites
×
Save as Personal and add changes to this tab that will be seen only by you. Learn more ›
×
You can save this tab as Personal to edit and correct it or add notes. All changes will be seen only by you. Learn more »
launch autoscroll
font size
0
reset
how to read this tab
guitar tuner
edit
Autoscroll
slow
fast
+/-
esc
set tempo
stop
Author
Difficulty
2x11 = 1 1-1-1 1-1-1 1-1-1-1-| (dum dumdumdum dumdumdum dumdumdumdum)
2x5 = 1 1-1-1-1--------------| (dum dumdumdumdum)

[part 1]
            1A                                   1B
e|------------------------------|---------------------------------|
B|------------------------------|---------------------------------|
G|------------------------------|--------1------------------------|
D|--------1---------------------|------2--------------------1-2---|
A|------2-------------------1-2-|-2x11------2x5-2x5-2-2-2-4-------|
E|-2x11-----2x5-2x5-2-2-2-4-----|---------------------------------|

[Part 2]
e|---------------------------------------------------|
B|---------------------------------------------------|
G|---------------------------------------------------|
D|-1-4------------1--------1-4-------------1---------|
A|-----2---2----2---2-4--------2---2-----2---2-1-----|
E|-------4---0-2-----------------4---0-2-------------|

[Part 1]
            1A                                   1B
e|------------------------------|---------------------------------|
B|------------------------------|---------------------------------|
G|------------------------------|--------1------------------------|
D|--------1---------------------|------2--------------------1-2---|
A|------2-------------------1-2-|-2x11------2x5-2x5-2-2-2-4-------|
E|-2x11-----2x5-2x5-2-2-2-4-----|---------------------------------|

[Part 3]
            3A                              3B
e|------------------------------|--------4-----------------------|
B|--------4---------------------|------5-------------------------|
G|------4-------------------3-4-|-4x11-----4x5-4x5-4-4-4-6-4-5---|
D|-4x11-----4x5-4x5-4-4-4-6-----|--------------------------------|
A|------------------------------|--------------------------------|
E|------------------------------|--------------------------------|

[Part 4]
e|---------------------------------------------------------|
B|-4-7-------------4------------4-7-------------4----------|
G|-----4---4-----4---4-6------------4---4-----4---4-6------|
D|-------6-----4----------------------6-----4--------------|
A|-----------7----------------------------7----------------|
E|---------------------------------------------------------|

[Part 3]
            3A                              3B
e|------------------------------|--------4-----------------------|
B|--------4---------------------|------5-------------------------|
G|------4-------------------3-4-|-4x11-----4x5-4x5-4-4-4-6-4-5---|
D|-4x11-----4x5-4x5-4-4-4-6-----|--------------------------------|
A|------------------------------|--------------------------------|
E|------------------------------|--------------------------------|


************************************

| x  Dead note

************************************
Suggest correction
Creating personal tab
Creating personal tab
You can edit any tab online and save it as your Personal.

You can edit, replace or remove any tab part or add personal notes – all changes will be seen only by you.

Personal tabs can be accessed anytime from any device, even offline.
Learn more »
comments
print report bad tab
2 comments total.
0 reply
jonke38 10 Sep 09, 2008 10:40 AM

Part 3 and 4 is correct, 1 and 2 is not 100%, but nice anyway:)

0 reply
wraith88 42 Nov 19, 2008 07:43 AM

Yeah, it seems like on Part 2, it should be:
E---------------------------------------------------|
B---------------------------------------------------|
G---------------------------------------------------|
D-1-4------------1--------1-4-------------1---------|
A-----2---2----2---2-4--------2---2-----2---2-1-----|
E-------4---2-2-----------------4---2-2-------------|

But otherwise, excellent tab. Great tune that everybody knows and just smiles when they hear it. Thanks a bunch!

guest
You may want to rate the tab now too:
select rating
Wanna post a correction for this tab? Suggest correction