Oops, an error
Loading. Please wait.

Call Of Duty Black Ops - Undone tab

8,960 views 48 this week
2 commentsread comments
1 2 3 4 5
x 19
add to favorites
×
Save as Personal and add changes to this tab that will be seen only by you. Learn more ›
×
You can save this tab as Personal to edit and correct it or add notes. All changes will be seen only by you. Learn more »
launch autoscroll
font size
0
reset
how to read this tab
guitar tuner
edit
Autoscroll
slow
fast
+/-
esc
set tempo
stop
Author
Tuning: CGCFAD

(x4)
D|--------------------------|
A|--------------0-----------|
F|--------5--------5-----5--|
C|-----7-----7--------7-----|
G|--0-----------------------|
C|--------------------------|

(x1)
D|--------------------------|--------------------------|
A|--------------0-----------|--------------9-----------|
F|--------7--------7-----7--|--------7--------7-----7--|
C|-----9-----9--------9-----|-----9-----9--------9-----|
G|--0-----------------------|--0-----------------------|
C|--------------------------|--------------------------|

D|--------------------------|---------------------------|
A|--------------0-----------|--------------10-----------|
F|--------7--------7-----7--|--------7---------7-----7--|
C|-----9-----9--------9-----|-----9-----9---------9-----|
G|--0-----------------------|--0------------------------|
C|--------------------------|---------------------------|
Suggest correction
Creating personal tab
Creating personal tab
You can edit any tab online and save it as your Personal.

You can edit, replace or remove any tab part or add personal notes – all changes will be seen only by you.

Personal tabs can be accessed anytime from any device, even offline.
Learn more »
comments
print report bad tab
2 comments total.
0 reply
Drampi_Goner7 10 Apr 27, 2016 07:10 PM

This is dope 10/10

0 reply
Drampi_Goner7 10 Apr 27, 2016 07:11 PM

Forgot to rate, 5/5?

guest
You may want to rate the tab now too:
select rating
Wanna post a correction for this tab? Suggest correction