Oops, an error
Loading. Please wait.

Cliff Martinez - Falling Off A Bicycle Plus chords

89 views 1 this week
no commentswrite comment
1 2 3 4 5
2 more votes to show rating
add to favorites
×
Save as Personal and add changes to this tab that will be seen only by you. Learn more ›
×
You can save this tab as Personal to edit and correct it or add notes. All changes will be seen only by you. Learn more »
launch autoscroll
font size
0
reset
transpose
0
reset
simplify chords
display chords
guitar tuner
edit
Autoscroll
slow
fast
+/-
esc
set tempo
stop
Strumming
There is no strumming pattern for this song yet. and get +5 IQ
Falling Off A Bicycle Plus.
A genius piece of music written by Cliff Martinez for the masterpiece tv series The Knick.

|Em    |      |      |

|Em    |      |      |
|Am7   |      |      |
|C     |      |      |
|B7    |      |      |

0:24

|Em    |      |      |
|Am7   |      |      |
|Dm    |      |      |
|G     |      |      |

0:43

|Em    |      |      |
|Am7   |      |      |
|Dm    |      |      |
|B7    |      |      |

1:01

|Em    |      |      |


|Em    |      |      |
|Am7   |      |      |
|C     |      |      |
|B7    |      |      |

1:25

|Em    |      |      |
|Am7   |      |      |
|Dm    |      |      |
|G     |      |      |

1:44 

|Em    |      |      |
|C     |      |      |
|Am7   |      |      |
|B7    |      |      |

2:04

|Em    |      |      |
|Am7   |      |      |
|C     |      |      |
|B7    |      |      |

2:21

|Gm7   |      |      |      |      |
|Dm    |      |      |      |      |
|Bb    |      |      |      |      |
|A7    |      |      |      |      |

2:50

|Dm    |      |      |      |      |
|Am    |      |      |      |      |
|Dm    |      |      |      |      |
|A7    |      |      |      |      |



Play below with capo on the 7th fret and you'll get the tab right

(0:43)

     Em           Am         Dm          B7
e |--0---0-------------------1---1-0----0---0------|
B |----1---1s3----3-1-3p0------3----------1---1s3--|
G |------------------------------------------------|
D |------------------------------------------------|
A |------------------------------------------------|
E |------------------------------------------------|

(1:23)

     Em           Am         Dm         G
e |--0---0-------------------1---1-0------0---0--|
B |----1---1s3----3-1-3p0------3--------3---3----|
G |----------------------------------------------|
D |----------------------------------------------|
A |----------------------------------------------|
E |----------------------------------------------|

(2:03)

     Em         C          Am         B7
e |----0-------------------1---1-0------0---0--|
B |--1---1------1-0-1p0------3--------3---3----|
G |--------2-----------------------------------|
D |--------------------------------------------|
A |--------------------------------------------|
E |--------------------------------------------|


     Gm         Dm         Bb        A
e |-------------------------------------------|
B |--3-1-3-1---------------4-3-4-3---3-1-3-1--|
G |-------------3-2-3-2-----------------------|
D |-------------------------------------------|
A |-------------------------------------------|
E |-------------------------------------------|

     Dm         Am         Dm        A
e |-------------------------------------------|
B |--3-1-3-1---------------4-3-4-3---3-1-3-1--|
G |-------------3-2-3-2-----------------------|
D |-------------------------------------------|
A |-------------------------------------------|
E |-------------------------------------------|

            
            
Suggest correction
Creating personal tab
Creating personal tab
You can edit any tab online and save it as your Personal.

You can edit, replace or remove any tab part or add personal notes – all changes will be seen only by you.

Personal tabs can be accessed anytime from any device, even offline.
Learn more »
Give kudos to tab author, rate the tab!
1 2 3 4 5
comments
print report bad tab
guest
You may want to rate the tab now too:
select rating
Wanna post a correction for this tab? Suggest correction